PrimaNota.ru - самый крупный в мире бесплатный архив песенных текстов, аккордов, табулатур и нот


Evertee Betty - Shoop Shoop Song - бас-таба, видео

Регистрация Запомнить меня
Войти через:  Facebook Google Twitter Vk Yandex Mail.ru

Evertee Betty - Shoop Shoop Song - бас-таба, видео

Печатать
Просмотров: 53
betty_everett_shoop_shoop_song(it's_in_his_kiss).btab

Basstab by Jan Bjorklund, Finland  jani_bjorklund@yahoo.se>
You are welcome to request for basstabs!
Bienvenidos a pedirme transcripciones para el bajo!
Fingering and positions as suggested by TablEdit. 

TablEdited by Jan Bjorklund
Tuning : E A D G 	Time Signature: 4/4

 |       |       |       |        |       |       |       |        
|--------------------------------|--------------------------------|
|--------------------------------|--------------------------------|
|--------------------------------|--------------------------------|
|3-----------------------3-------|1-----------------------1-------|

 |       |       |       |        |       |       |       |        
|--------------------------------|--------------------------------|
|--------------------------------|--------------------------------|
|--------------------------------|------------------------0---2---|
|3-----------------------3-------|3-------------------3-----------|

 |       |       |       |        |       |       |       |        
|--------------------------------|--------------------------------|
|0-----------0-------------------|0-----------0-------------------|
|------------------------0-------|------------------------0-------|
|----------------3-----------3---|----------------3---3-------3---|

 |       |       |       |        |       |       |       |        
|--------------------------------|--------------------------------|
|0-----------0-------------------|0-----------0-------------------|
|------------------------0-------|------------------------0---2---|
|----------------3---3-------3---|----------------3---3-----------|

 |       |       |       |        |       |       |       |        
|--------------------------------|--------------------------------|
|--------------------------------|--------------------------------|
|3-----------3---0-----------0---|------------------------0---2---|
|--------------------------------|1-----------1---3---------------|

 |       |       |       |        |       |       |       |        
|--------------------------------|--------------------------------|
|--------------------------------|--------------------------------|
|3-----------3-------------------|------------------------0---2---|
|----------------1---1-------3---|----3---3---3---3---3-----------|

 |       |       |       |        |       |       |       |        
|--------------------------------|--------------------------------|
|0-----------0-------------------|0-----------0-------------------|
|------------------------0-------|------------------------0-------|
|----------------3-----------3---|----------------3---3-------3---|

 |       |       |       |        |       |       |       |        
|--------------------------------|--------------------------------|
|0-----------0-------------------|0-----------0-------------------|
|------------------------0-------|------------------------0---2---|
|----------------3---3-------3---|----------------3---3-----------|

 |       |       |       |        |       |       |       |        
|--------------------------------|--------------------------------|
|--------------------------------|--------------------------------|
|3-----------3---0-----------0---|------------------------0---2---|
|--------------------------------|1-----------1---3---------------|

 |       |       |       |        |       |       |       |        
|--------------------------------|--------------------------------|
|--------------------------------|--------------------------------|
|3-----------3---------------3---|--------------------------------|
|----------------1---1-----------|----3---3---3---3---3---3---3---|

 |       |       |       |        |       |       |       |        
|--------------------------------|--------------------------------|
|--------------------------------|----------------0-------1-------|
|3-----------3---------------3---|--------3-----------------------|
|----------------1---1-----------|--------------------------------|

 |       |       |       |        |       |       |       |        
|--------------------------------|--------------------------------|
|--------------------------------|--------------------------------|
|--------------------------------|--------------------------------|
|0-----------0---0---------------|0-----------0---0-------1---3---|

 |       |       |       |        |       |       |       |        
|--------------------------------|--------------------------------|
|--------------------------------|--------------------------------|
|0-----------0---0---------------|0-----------0---0-------2---3---|
|--------------------------------|--------------------------------|

 |       |       |       |        |       |       |       |        
|--------------------------------|--------------------------------|
|0-----------0---0---------------|0-----------0---0---------------|
|--------------------------------|------------------------2---0---|
|--------------------------------|--------------------------------|

 |       |       |       |        |       |       |       |        
|--------------------------------|--------------------------------|
|--------------------------------|--------------------------------|
|--------------------------------|------------------------0---2---|
|3-------------------------------|--------------------3-----------|

 |       |       |       |        |       |       |       |        
|--------------------------------|--------------------------------|
|0-----------0-------------------|0-----------0-------------------|
|------------------------0-------|------------------------0-------|
|----------------3-----------3---|----------------3---3-------3---|

 |       |       |       |        |       |       |       |        
|--------------------------------|--------------------------------|
|0-----------0-------------------|0-----------0-------------------|
|------------------------0-------|------------------------0---2---|
|----------------3---3-------3---|----------------3---3-----------|

 |       |       |       |        |       |       |       |        
|--------------------------------|--------------------------------|
|--------------------------------|--------------------------------|
|3-----------3---0-----------0---|------------------------0---2---|
|--------------------------------|1-----------1---3---------------|

 |       |       |       |        |       |       |       |        
|--------------------------------|--------------------------------|
|--------------------------------|--------------------------------|
|3-----------3-------------------|------------------------0---2---|
|----------------1---1-------3---|----3---3---3---3---3-----------|

 |       |       |       |        |       |       |       |        
|--------------------------------|--------------------------------|
|0-----------0-------------------|0-----------0-------------------|
|------------------------0-------|------------------------0-------|
|----------------3-----------3---|----------------3---3-------3---|

 |       |       |       |        |       |       |       |        
|--------------------------------|--------------------------------|
|0-----------0-------------------|0-----------0-------------------|
|------------------------0-------|------------------------0---2---|
|----------------3---3-------3---|----------------3---3-----------|

 |       |       |       |        |       |       |       |        
|--------------------------------|--------------------------------|
|--------------------------------|--------------------------------|
|3-----------3---0-----------0---|------------------------0---2---|
|--------------------------------|1-----------1---3---------------|

 |       |       |       |        |       |       |       |        
|--------------------------------|--------------------------------|
|--------------------------------|--------------------------------|
|3-----------3---------------3---|--------------------------------|
|----------------1---1-----------|----3---3---3---3---3---3---3---|

 |       |       |       |        |       |       |       |        
|--------------------------------|--------------------------------|
|--------------------------------|--------------------------------|
|3-----------3-------------------|------------------------0---2---|
|----------------1---1-------3---|----3---3---3---3---3-----------|

 |       |       |       |        |       |       |       |        
|--------------------------------|--------------------------------|
|0-----------0-------------------|0-----------0-------------------|
|--------------------------------|------------------------0---2---|
|----------------3-----------3---|----------------3---3-----------|

 |       |       |       |        |       |       |       |        
|--------------------------------|--------------------------------|
|--------------------------------|--------------------------------|
|3-----------3-------------------|3-----------3-----------0---2---|
|----------------3---3-------3---|----------------3---3-----------|

 |       |       |       |        |       |       |       |        
|--------------------------------|--------------------------------|
|0-----------0-------------------|0-----------0-------------------|
|--------------------------------|------------------------0---2---|
|----------------3-----------3---|----------------3---------------|

 |       |       |       |        |       |       |       |        
|--------------------------------|--------------------------------|
|--------------------------------|----------------0-------1-------|
|3-------------------------------|--------3-----------------------|
|--------------------------------|--------------------------------|

 |       |       |       |        |       |       |       |        
|--------------------------------|--------------------------------|
|--------------------------------|--------------------------------|
|--------------------------------|--------------------------------|
|0-----------0---0---------------|0-----------0---0-------1---3---|

 |       |       |       |        |       |       |       |        
|--------------------------------|--------------------------------|
|--------------------------------|--------------------------------|
|0-----------0---0---------------|0-----------0---0-------2---3---|
|--------------------------------|--------------------------------|

 |       |       |       |        |       |       |       |        
|--------------------------------|--------------------------------|
|0-----------0---0---------------|0-----------0---0---------------|
|--------------------------------|------------------------2---0---|
|--------------------------------|--------------------------------|

 |       |       |       |        |       |       |       |        
|--------------------------------|--------------------------------|
|--------------------------------|--------------------------------|
|--------------------------------|------------------------0---2---|
|3-------------------------------|--------------------3-----------|

 |       |       |       |        |       |       |       |        
|--------------------------------|--------------------------------|
|0-----------0-------------------|0-----------0-------------------|
|------------------------0-------|------------------------0-------|
|----------------3-----------3---|----------------3---3-------3---|

 |       |       |       |        |       |       |       |        
|--------------------------------|--------------------------------|
|0-----------0-------------------|0-----------0-------------------|
|------------------------0-------|------------------------0---2---|
|----------------3---3-------3---|----------------3---3-----------|

 |       |       |       |        |       |       |       |        
|--------------------------------|--------------------------------|
|--------------------------------|--------------------------------|
|3-----------3---0-----------0---|------------------------0---2---|
|--------------------------------|1-----------1---3---------------|

 |       |       |       |        |       |       |       |        
|--------------------------------|--------------------------------|
|--------------------------------|--------------------------------|
|3-----------3-------------------|------------------------0---2---|
|----------------1---1-------3---|----3---3---3---3---3-----------|

 |       |       |       |        |       |       |       |        
|--------------------------------|--------------------------------|
|--------------------------------|--------------------------------|
|3-----------3---0-----------0---|------------------------0---2---|
|--------------------------------|1-----------1---3---------------|

 |       |       |       |        |       |       |       |        
|--------------------------------|--------------------------------|
|--------------------------------|--------------------------------|
|3-----------3-------------------|------------------------0---2---|
|----------------1---1-------3---|----3---3---3---3---3-----------|

 |       |       |       |        |       |       |       |        
|--------------------------------|--------------------------------|
|--------------------------------|--------------------------------|
|3-----------3---0-----------0---|------------------------0---2---|
|--------------------------------|1-----------1---3---------------|

 |       |       |       |        |       |       |       |        
|--------------------------------|--------------------------------|
|--------------------------------|--------------------------------|
|3-----------3-------------------|------------------------0---2---|
|----------------1---1-------3---|----3---3---3---3---3-----------|

 |       |       |       |        |       |       |       |        
|--------------------------------|--------------------------------|
|--------------------------------|--------------------------------|
|3-----------3---0-----------0---|------------------------0---2---|
|--------------------------------|1-----------1---3---------------|

 |       |       |       |        |       |       |       |        
|--------------------------------|--------------------------------|
|--------------------------------|--------------------------------|
|3-----------3-------------------|--------------------------------|
|----------------1---1-------3---|----3---3---3---3---3---3---3---|

 |       |       |       |        
|--------------------------------|
|--------------------------------|
|3-------------------------------|
|--------------------------------|


Created with TablEdit http://www.tabledit.com/

............................................................
     
Добавлено: 20.06.2013
Другие материалы по этой песне:
  • Аккорды и текст

Страница создана 20.06.2013
http://primanota.ru/evertee-betty/shoop-shoop-song-chords.htm
Привет, Гость.
Предлагаем пройти революционный курс по гитаре.
Подарок от PrimaNota.Ru, забирай!