PrimaNota.ru - самый крупный в мире бесплатный архив песенных текстов, аккордов, табулатур и нот


Evermore - Real Life - текст песни, таба, видео

Регистрация Запомнить меня
Войти через:  Facebook Google Twitter Vk Yandex Mail.ru

Evermore - Real Life - текст песни, таба, видео

Печатать
Просмотров: 196
-------------------------------------------------------------------------------
                             Real Life - Evermore
-------------------------------------------------------------------------------
Tabbed by: michael33
Email: mickmiff@hotmail.com

Tuning: Eb Ab Db Gb Bb Eb

Some of these chords don't have names as far as i know- for the intro riff, I think 
leaving out the root

note for the B and C#m-type chords (although they're really Bb, etc. in this tuning!)

Jon's also using a 12-string, so you just have to use your imagination for some of it =op

The strumming pattern varies, but you can tell it follows very closely what Dan is doing 
the drums. Listen to

the 2nd "Welcome to..." and I think you get it. Sounds awesome =op

Enjoy!

Intro riff


e|---0-------0------0------0---|---0------------------------|------------------|
B|---0-------0------0------0---|---0------------------------|------------------|
G|---6------/8------9------8---|---9------------------------|------------------|
D|---7------/9------9------9---|---9------------------------|------------------|
A|---0-------0------0------0---|---7------------------------|------------------|
E|---0-------0------0------0---|---0------------------------|------------------|

The singing starts using the same riff except this time the E chord moves down towards 
nut. This part applies

to any other time in the song they sing "Welcome to..." This continues three times and 
with "i've come to

realise it's no game"

                            "...realise it's no game"
e|-----0-------0------0--------|--0---------------|----------------|
B|-----0-------0------0--------|--0---------------|----------------|
G|-----6------/8------9--------|--3---------x3----|----------------|
D|-----7------/9------9--------|--2---------------|----------------|
A|-----0-------0------0--------|--2---------------|----------------|
E|-----0-------0------0--------|--0---------------|----------------|

  "No one is the same"                  "...life... eye"
   C#m                            A2        E         B
e|--0--------------------------|---0--------0-----|---0------------|------------|
B|--5--------------------------|---0--------0-----|---0------------|------------|
G|--6--------------------------|---2--------3-----|---4------------|------------|
D|--6--------------------------|---2--------2-----|---4------------|------------|
A|--4--------------------------|---0--------2-----|---2------------|------------|
E|--0--------------------------|---0--------0-----|---0------------|------------|


Verse 1
  "At night I just can't sleep..."                 "...the mess around this"
    E                             C#m                C#m
e|--0--------------------------|---0--------------|---0----------------------------|
B|--0--------------------------|---5--------------|---5----------------------------|
G|--3--------------------------|---6---------x2---|---6----------------------------|
D|--2--------------------------|---6--------------|---6----------------------------|
A|--2--------------------------|---4--------------|---4----------------------------|
E|--0--------------------------|---0--------------|---0----------------------------|

  "room...........woah, etc."    "Voices in the..."  
    B                              A2
e|--0--------------------------|---0-(0)----------|--------------------------------|
B|--0--------------------------|---0-(0)----------|--------------------------------|
G|--4--------------------------|---2-(2)-----x2---|--------------------------------|
D|--4--------------------------|---2-(2)----------|--------------------------------|
A|--2--------------------------|---0-(0)----------|--------------------------------|
E|--0--------------------------|---0-(0)----------|--------------------------------|


Then it comes back to the "Welcome to..." part

                                  "...the word's they're saying" <3rd time>
e|-----0-------0------0--------|--0---------------|----------------|
B|-----0-------0------0--------|--0---------------|----------------|
G|-----6------/8------9--------|--3---------x3----|----------------|
D|-----7------/9------9--------|--2---------------|----------------|
A|-----0-------0------0--------|--2---------------|----------------|
E|-----0-------0------0--------|--0---------------|----------------|

"The chords are changing"        "So take..."
   C#m                            A2        E         B
e|--0--------------------------|---0--------0-----|---0------------|------------|
B|--5--------------------------|---0--------0-----|---0------------|------------|
G|--6--------------------------|---2--------3-----|---4------------|------------|
D|--6--------------------------|---2--------2-----|---4------------|------------|
A|--4--------------------------|---0--------2-----|---2------------|------------|
E|--0--------------------------|---0--------0-----|---0------------|------------|

Verse 2
  "Sometimes I just can't..."                       "I can't get through..."
    E                             C#m                C#m
e|--0--------------------------|---0--------------|---0----------------------------|
B|--0--------------------------|---5--------------|---5----------------------------|
G|--3--------------------------|---6---------x2---|---6----------------------------|
D|--2--------------------------|---6--------------|---6----------------------------|
A|--2--------------------------|---4--------------|---4----------------------------|
E|--0--------------------------|---0--------------|---0----------------------------|

   "you...woah, etc."                  "Voices in the..." 
    B                              A2
e|--0--------------------------|---0--------------|--------------------------------|
B|--0--------------------------|---0--------------|--------------------------------|
G|--4--------------------------|---2------x2------|--------------------------------|
D|--4--------------------------|---2--------------|--------------------------------|
A|--2--------------------------|---0--------------|--------------------------------|
E|--0--------------------------|---0--------------|--------------------------------|

Then the song takes a change and starts on the "what are we coming to?"

    "What are we coming    to?"
    C#m                    B      E(no3)
e|---0---------------------0---|---0---------------------------------------------|
B|---5---------------------0---|---0---------------------------------------------|
G|---6---------------------4---|---9---------------------------------------------|
D|---6---------------------4---|---9---------------------------------------------|
A|---4---------------------2---|---7---------------------------------------------|
E|---0---------------------0---|---0---------------------------------------------|

    "What are we coming    to   oo..."
    C#m                    B       E
e|---0---------------------0---|---0---------------------------------------------|
B|---5---------------------0---|---0---------------------------------------------|
G|---6---------------------4---|---3---------------------------------------------|
D|---6---------------------4---|---2---------------------------------------------|
A|---4---------------------2---|---2---------------------------------------------|
E|---0---------------------0---|---0---------------------------------------------|

    "What does it mean to you ?"
    C#m                    B      E(no3)
e|---0---------------------0---|---0---------------------------------------------|
B|---5---------------------0---|---0---------------------------------------------|
G|---6---------------------4---|---9---------------------------------------------|
D|---6---------------------4---|---9---------------------------------------------|
A|---4---------------------2---|---7---------------------------------------------|
E|---0---------------------0---|---0---------------------------------------------|

    "It all comes down to you..."
    C#m                    B       E(no3)
e|---0---------------------0---|---0---------------------------------------------|
B|---5---------------------0---|---0---------------------------------------------|
G|---6---------------------4---|---9-----x2 (using an E the 2nd time)------------|
D|---6---------------------4---|---9---------------------------------------------|
A|---4---------------------2---|---7---------------------------------------------|
E|---0---------------------0---|---0---------------------------------------------|

    "oh oh, etc."
    C#m                    B       E
e|---0---------------------0---|---0---------------------------------------------|
B|---5---------------------0---|---0---------------------------------------------|
G|---6---------------------4---|---9-----x4 (using an E(no3) the 2nd time)-------|
D|---6---------------------4---|---9---------------------------------------------|
A|---4---------------------2---|---7---------------------------------------------|
E|---0---------------------0---|---0---------------------------------------------|

I think John starts off an outro solo that goes something like this:

e|----------------------------|-----------------------------------------------|
B|---12-12-(12)---------------|-----------------------------------------------|
G|----------------11-13----x3-|-----------------------------------------------|
D|----------------------------|-----------------------------------------------|
A|----------------------------|-----------------------------------------------|
E|----------------------------|-----------------------------------------------|


Alternate Intro

e|---0-------0------0------0---|---0------------------------|------------------|
B|---2-------0------0------0---|---0------------------------|------------------|
G|---2------/4------9------8---|---9------------------------|------------------|
D|---2------/4------9------9---|---9------------------------|------------------|
A|---0-------0------0------0---|---7------------------------|------------------|
E|---0-------0------0------0---|---0------------------------|------------------|

Any comments let me know :)
Добавлено: 13.04.2012
Другие материалы по этой песне:
  • Аккорды и текст

Страница создана 13.04.2012
http://primanota.ru/evermore/real-life-chords.htm
Привет, Гость.
Предлагаем пройти революционный курс по гитаре.
Подарок от PrimaNota.Ru, забирай!