PrimaNota.ru - самый крупный в мире бесплатный архив песенных текстов, аккордов, табулатур и нот


Evermore - Hey Boys And Girls - текст песни, таба, видео

Регистрация Запомнить меня
Войти через:  Facebook Google Twitter Vk Yandex Mail.ru

Evermore - Hey Boys And Girls - текст песни, таба, видео

Печатать
Просмотров: 266
Уроки эстрадного вокала в Санкт-Петербурге
This is my first tab. I watched the youtube clip to figure out a bit of this. Once I 
it I figured the rest out by ear. This is only a guide probably not 100% correct.


Intro part by synthisizer or whatever it is. chord shape is F#m
E--------------------                     --------------------|
B--------------------                     --------------------|
G--------------------                     --------------------|
D--------2-4------2-4   or alternatively  --4---2-4---4---2-4-|
A-----4---------4----                     ----4---------4-----|
E---2---------2------                     --------------------|

Verse
E-------------2----------|
B-------------2----------|
G-4-4-4-2-2-2-2  Repeat--| x3
D-4-4-4-2-2-2-4----------|
A-2-2-2-2-2-2-4----------|
E-------------2----------|

Verse continued
E-----------------------------------------------------------------------|
B--------------------------------------7--------------------------------|
G----------------------4---------------7--------------------4-----------|
D----------------------4---------------7--------------------4-----------|
A----------------------2---------------5--------------------2-----------|
E-----------------------------------------------------------------------|
   Welcome to the show                     Were all set to go

E------------------------------|
B----6-------------------------|
G----6-------------------------|
D----6-------------------------|
A----4-------------------------|
E------------------------------|
     So come on     so come on

Pre Chorus
E----------------------------------------------------------------|
B----------------------------------------------------------------|
G--7----------------------1--------------7--------------1--------|
D--7----------7-----------2------4-------7--------7-----2------4-|
A--5----------7-----------2------4-------5--------7-----2------4-|
E-------------5------------------2----------------5------------2-|
   What do you wanna hear first?         Bad news or the worst?

------------------------------------------------------------|
------------------------------------------------------------|
---7--------------------1--------------7----------6---------|
---7---------7----------2-------4------7----------6---------|
---5---------7----------2-------4------5----------4---------|
-------------5------------------2---------------------------|
  Where here to entertain            So disconnect your brain

Chorus
E-------------------------------------|
B-------------------------------------|
G-----7-------------4-----------------|
D-----7-------------4-------------4---| Repeat x4 then repeat intro
A-----5-------------2-------------4---|
E---------------------------------2---|
    Hey boys and girls

I think thats all you need. you can figure the rest out for yourselves.

Cheers
Добавлено: 14.06.2012
Другие материалы по этой песне:
  • Аккорды и текст

Страница создана 14.06.2012
http://primanota.ru/evermore/hey-boys-and-girls-chords.htm
Привет, Гость.
Предлагаем пройти революционный курс по гитаре.
Подарок от PrimaNota.Ru, забирай!