PrimaNota.ru - самый крупный в мире бесплатный архив песенных текстов, аккордов, табулатур и нот


Everlife - Strangers Like Me - текст песни, таба, видео

Регистрация Запомнить меня
Войти через:  Facebook Google Twitter Vk Yandex Mail.ru

Everlife - Strangers Like Me - текст песни, таба, видео

Печатать
Просмотров: 124
Pretty cool song. Awesome Band. It might not be 100% accurate but it sounds pretty close 
me. Enjoy and please rate.

STRANGERS LIKE ME- EVERLIFE
TABBED BY: 06gtrplay92
TUNING: STANDARD

INTRO (DISTORTED)

e|--------------------|
B|--------------------|
G|--------------------|
D|--------------------| x5
A|-1-1---6-6-6-6-6----|
E|-----1--------------|

e|------------------|  |----------------------|
B|------------------|  |----------------------|
G|------------x-x---|  |-3-3----8-8-8-8-8-----|
D|------------x-x---|  |-3-3-3--8-8-8-8-8—-x4-|
A|-1-1---6-6--x-x---|  |-1-1-3--6-6-6-6-6-----|
E|-----1------------|  |-----1----------------|

VERSE 1 (Bass)

G|------------------------|
D|------------------------|
A|------------------------| x8
E|-6-6-1/11-11-11-11-11---|

PRE- CHORUS 1

e|------------------------------------------------------|
B|------------------------------------------------------|
G|-6~------8~--3~--6~----------------------------5------|
D|-6~--6~--8~--3~--6~--6~--8-8--8-8--8-8--8-8--8-5------|
A|-4~--6~--6~--1~--4~--6~--8-8--8-8--8-8--8-8--8-3------|
E|-----4~--------------4~--6-6--6-6--6-6--6-6--6--------|

CHORUS 1

e|------------------------------------------------------------------------------|
B|------------------------------------------------------------------------------|
G|-3-3----8-8-8-8-8--3-3----13-13-13-8-8--3-3----8-8-8-8-8—-3-3---8-8-8-8-8-----|
D|-3-3-3--8-8-8-8-8—-3-3-3--13-13-13-8-8--3-3-3--8-8-8-8-8--3-3-3-8-8-8-8-8-----|
A|-1-1-3--6-6-6-6-6--1-1-3--11-11-11-6-6--1-1-3--6-6-6-6-6--1-1-3-6-6-6-6-6-----|
E|-----1-----------------1--------------------1-----------------1---------------|

e|----------------------------------------------------------------|
B|----------------------------------------------------------------|
G|-3-3----8-8-8-8-8--3-3----13-13-13-8—8--3-3----8-8-8-8-8—-8~----|
D|-3-3-3--8-8-8-8-8--3-3-3--13-13-13-8-8--3-3-3--8-8-8-8-8—-8~----|
A|-1-1-3--6-6-6-6-6--1-1-3--11-11-11-6-6--1-1-3--6-6-6-6-6—-6~----|
E|-----1-----------------1--------------------1-------------------|

PRE-VERSE 1

e|--------------------|
B|--------------------|
G|-3-3----8-8-8-8-8---|
D|-3-3-3--8-8-8-8-8---| x4
A|-1-1-3--6-6-6-6-6---|
E|-----1--------------|

VERSE 2 (Bass)

G|------------------------|
D|------------------------|
A|------------------------| x8
E|-6-6-1/11-11-11-11-11---|

PRE- CHORUS 2

e|------------------------------------------------------|
B|------------------------------------------------------|
G|-6~------8~--3---6~----------------------------5------|
D|-6~--6~--8~--3~--6~--6~--8-8--8-8--8-8--8-8--8-5------|
A|-4~--6~--6~--1~--4~--6~--8-8--8-8--8-8--8-8--8-3------|
E|-----4~--------------4~--6-6--6-6--6-6--6-6--6--------|

CHORUS 2

e|--------------------------------------------------------------------------------|
B|--------------------------------------------------------------------------------|
G|-3-3----8-8-8-8-8--3-3----13-13-13-13-13--3-3----8-8-8-8-8—-3-3---8-8-8-8-8-----|
D|-3-3-3--8-8-8-8-8—-3-3-3--13-13-13-13-13--3-3-3--8-8-8-8-8--3-3-3-8-8-8-8-8-----|
A|-1-1-3--6-6-6-6-6--1-1-3--11-11-11-11-11--1-1-3--6-6-6-6-6--1-1-3-6-6-6-6-6-----|
E|-----1-----------------1----------------------1-----------------1---------------|

e|------------------------------------------------------------------|
B|------------------------------------------------------------------|
G|-3-3----8-8-8-8-8--3-3----13-13-13-13-13—-3-3----8-8-8-8-8—-8~----|
D|-3-3-3--8-8-8-8-8--3-3-3--13-13-13-13-13--3-3-3--8-8-8-8-8—-8~----|
A|-1-1-3--6-6-6-6-6--1-1-3--11-11-11-11-11--1-1-3--6-6-6-6-6—-6~----|
E|-----1-----------------1----------------------1-------------------|

BRIDGE

Guitar 1 (CLEAN)
e|-----------------------------------------------|
B|-----------------------------------------------|
G|-8-8-8-8-8-8-8-8--13-13-13-13-13-13-13-13------|
D|-8-8-8-8-8-8-8-8--13-13-13-13-13-13-13-13------|
A|-6-6-6-6-6-6-6-6--11-11-11-11-11-11-11-11------|
E|-----------------------------------------------|

Guitar 2 (DISTORTED)                                 x3
e|-----------------------------------------------|
B|-----------------------------------------------|
G|-----/8----------------/13---------------------|
D|-----/8----------------/13---------------------|
A|-----/6----------------/11---------------------|
E|-----------------------------------------------|

THEN,

Guitar 1
e|--------------------------------------|
B|--------------------------------------|
G|-6-6-6-6-6-6-6-6--5-5-5-5-5-5-5-5-----|
D|-6-6-6-6-6-6-6-6--5-5-5-5-5-5-5-5-----|
A|-4-4-4-4-4-4-4-4--3-3-3-3-3-3-3-3-----|
E|--------------------------------------|

ACOUSTIC
e|-4-4-4-4--4-4-4-4-4-4-4-4--6-6-6-6-6-6-6-6----|
B|-4-4-4-4--4-4-4-4-4-4-4-4--6-6-6-6-6-6-6-6----|
G|-6-6-6-6--5-5-5-5-5-5-5-5--8-8-8-8-8-8-8-8----|
D|-6-6-6-6--6-6-6-6-6-6-6-6--8-8-8-8-8-8-8-8----|
A|-4-4-4-4--6-6-6-6-6-6-6-6--6-6-6-6-6-6-6-6----|
E|-4-4-4-4--4-4-4-4-4-4-4-4--6-6-6-6-6-6-6-6----|

CHORUS 3

e|--------------------|
B|--------------------|
G|--------------------|
D|--------------------| x3
A|-1-1---6-6-6-6-6----|
E|-----1--------------|

e|------------------|
B|------------------|
G|------------x-x---|
D|------------x-x---|
A|-1-1---6-6--x-x---|
E|-----1------------|

e|--------------------------------------------------------------------------------|
B|--------------------------------------------------------------------------------|
G|-3-3----8-8-8-8-8--3-3----13-13-13-13-13--3-3----8-8-8-8-8—-3-3---8-8-8-8-8-----|
D|-3-3-3--8-8-8-8-8—-3-3-3--13-13-13-13-13--3-3-3--8-8-8-8-8--3-3-3-8-8-8-8-8-----|
A|-1-1-3--6-6-6-6-6--1-1-3--11-11-11-11-11--1-1-3--6-6-6-6-6--1-1-3-6-6-6-6-6-----|
E|-----1-----------------1----------------------1-----------------1---------------|

e|------------------------------------------------------------------|
B|------------------------------------------------------------------|
G|-3-3----8-8-8-8-8--3-3----13-13-13-13-13—-3-3----8-8-8-8-8—-8~----|
D|-3-3-3--8-8-8-8-8--3-3-3--13-13-13-13-13--3-3-3--8-8-8-8-8—-8~----| x2
A|-1-1-3--6-6-6-6-6--1-1-3--11-11-11-11-11--1-1-3--6-6-6-6-6—-6~----|
E|-----1-----------------1----------------------1-------------------|

OUTRO

e|-----| |----------------------|
B|-----| |----------------------|
G|-x-x-| |-3-3----8-8-8-8-8-----|
D|-x-x-| |-3-3-3--8-8-8-8-8—-x4-|
A|-x-x-| |-1-1-3--6-6-6-6-6-----|
E|-----| |-----1----------------|

THAT'S IT. HAVE FUN!
Добавлено: 27.02.2012
Другие материалы по этой песне:
  • Аккорды и текст

Страница создана 27.02.2012
http://primanota.ru/everlife/strangers-like-me-chords.htm
Привет, Гость.
Предлагаем пройти революционный курс по гитаре.
Подарок от PrimaNota.Ru, забирай!