PrimaNota.ru - самый крупный в мире бесплатный архив песенных текстов, аккордов, табулатур и нот


Evergrey - Im Sorry - текст песни, таба, видео

Регистрация Запомнить меня
Войти через:  Facebook Google Twitter Vk Yandex Mail.ru

Evergrey - Im Sorry - текст песни, таба, видео

Печатать
Просмотров: 179
   4/4
    Gtr I
    Q  E Q  E E E E E E E +H
||----------------------------------|
||o-4----4----4---------------------|
||--0--0----0---0-------8-(8)-------|
||--1-------------5-6-5-------------|
||o---------------------------------|
||----------------------------------|
|
|   Gtr II
|   W             H        E  E E E
||----------------------------------|
||o---------------------------------|
||----------------------------------|
||------------------------------5---|
||o---------------------------6---6-|
||-------------------------4--------|


 4/4
  Gtr I
   Q   E Q  E E E E E E E +H
|-----------------------------------|
|--4-----4----4---------------------|
|------0----0---0-------8-(8)-------|
|-----------------5-6-5-------------|
|-----------------------------------|
|-----------------------------------|
|
| Gtr II
| +W              H        E  E E E
|-----------------------------------|
|-----------------------------------|
|-----------------------------------|
|-------------------------------8-5-|
|-(6)-------------------------6-----|
|--------------------------4--------|


 4/4
  Gtr I
   Q   E Q  E E E E E E E +H
|------------------------------------|
|--4-----4----4----------------------|
|------0----0---0-------8-(8)--------|
|-----------------5-6-5--------------|
|------------------------------------|
|------------------------------------|
|
| Gtr II
| +W              H        E  E E  E
|------------------------------------|
|------------------------------------|
|------------------------------------|
|-(5)---------------------------8-10-|
|-----------------------------6------|
|--------------------------4---------|


 4/4
  Gtr I
    Q   E Q  E E E Q  E Q  E E E  4x
|---------------------------------||
|---4-----4----4---4----4----4---o||
|-------0----0---0----0----0---0--||
|---------------------------------||
|--------------------------------o||
|---------------------------------||
|
| Gtr II
|  +W              Q  E           4x
|---------------------------------||
|--------------------------------o||
|---------------------------------||
|-(10)----------------------------||
|--------------------------------o||
|---------------------------------||
Добавлено: 24.06.2012
Вам также может быть интересно:
Другие материалы по этой песне:

Страница создана 30.03.2012
http://primanota.ru/evergrey/im-sorry-chords.htm
Привет, Гость.
Предлагаем пройти революционный курс по гитаре.
Подарок от PrimaNota.Ru, забирай!