PrimaNota.ru - самый крупный в мире бесплатный архив песенных текстов, аккордов, табулатур и нот


Evergreens - Whiskey In The Jar - таба, видео

Регистрация Запомнить меня
Войти через:  Facebook Google Twitter Vk Yandex Mail.ru

Evergreens - Whiskey In The Jar - таба, видео

Печатать
Просмотров: 69
Artist: The Evergreens
Album: Songs Of Ireland
Song: Whiskey In The Jar
Tabed For Tune: E
Tabed By Janne Tschokkinen
E-Mail: janne.tschokkinen@kolumbus.fi
Site: http://www.kolumbus.fi/janne.tschokkinen

!!!These tabs were created without any kinds of money making 
purposes and are to be used only for educational purposes!!!

!!!C not re-publish this tab without permission!!!
--------------------------------------------------------------

Intro:
| G | C | F | C G | C |

         G                     C                F
E|---------------------------|----------------|-------------7-8--|
H|---------------------------|-------------8--|-10-10--8-10------|
G|-9-7-5-7--7-7--7--7-7s9-7--|-9-9--7-9-10----|------------------|
D|---------------------------|----------------|------------------|
A|---------------------------|----------------|------------------|
E|---------------------------|----------------|------------------|

   F   C     G      C
E|----------------------|
H|-10--8----------------|
G|--------9--7--7-7-----|
D|------------------10--|
A|----------------------|
E|----------------------|

Verse: 1 "As I was going over..."
|: C | Am | F | C :|

Chorus:
| G | C | F | C G | C |

Verse: 2 "I counted out his..."
|: C | Am | F | C :|

Chorus:
| G | C | F | C G | C |

Verse: 3 "I went in to me* chamber..."
|: C | Am | F | C :|

Chorus:
| G | C | F | C G | C |

Solo:
|: C | Am | F | C :|

   C                      Am
E|----------------------|-----------------------|
H|-8--8-8--8--8-10-8----|-8-10--10-10-12--10----|
G|.------------------9--|--------------------9--|
D|.---------------------|-----------------------|
A|----------------------|-----------------------|
E|----------------------|-----------------------|

   F                            1. C
E|-----------------------------|--------------------|
H|-10--10-10-12--13--13-12-10--|-8--8-13--12--10----|
G|-----------------------------|-----------------9-.|
D|-----------------------------|-------------------.|
A|-----------------------------|--------------------|
E|-----------------------------|--------------------|

  2. C
E|---------------------|
H|-8--8-13--12--10-----|
G|-----------------12--|
D|---------------------|
A|---------------------|
E|---------------------|

Verse: 4 "'Twas early in the morning..."
|: D | Hm | G | D :|

Chorus:
| A | D | G | D A | D |

Verse: 4 "If any on can aid..."
|: D | Hm | G | D :|

Chorus:
|: A | D | G | D A | D :| D

*Notice Irish accent...IIIIIIII love it :)

     
Добавлено: 13.06.2013
Другие материалы по этой песне:
  • Аккорды и текст

Страница создана 13.06.2013
http://primanota.ru/evergreens/whiskey-in-the-jar-chords.htm
Привет, Гость.
Предлагаем пройти революционный курс по гитаре.
Подарок от PrimaNota.Ru, забирай!