PrimaNota.ru - самый крупный в мире бесплатный архив песенных текстов, аккордов, табулатур и нот


Evergreen Terrace - Were Always Loosing Blood - таба, видео

Регистрация Запомнить меня
Войти через:  Facebook Google Twitter Vk Yandex Mail.ru

Evergreen Terrace - Were Always Loosing Blood - таба, видео

Печатать
Просмотров: 94
Уроки эстрадного вокала в Санкт-Петербурге
Intro
F|-------------------------------|
A|-------------------------------|
D|-------------------------------|
C|-6-6-4-4-6-6-4-4-6-6-3-3-3-3-3-|
G|-4-4-2-2-4-4-2-2-4-4-1-1-1-1-1-|
C|-------------------------------|

Im not for sure how many times each chord is played for below. Just change chords 
when it sounds correct with the song.
D|-----------------|
A|-----------------|
F|-----------------|
C|-------0-0-0-0-0-|
G|-0-2-5-----------|
C|-0-0-5-----------|
  * * *
Добавлено: 27.07.2013
Другие материалы по этой песне:
  • Аккорды и текст

Страница создана 27.07.2013
http://primanota.ru/evergreen-terrace/were-always-loosing-blood-chords.htm
Привет, Гость.
Предлагаем пройти революционный курс по гитаре.
Подарок от PrimaNota.Ru, забирай!