PrimaNota.ru - самый крупный в мире бесплатный архив песенных текстов, аккордов, табулатур и нот


Evergreen Terrace - The Damned - таба, видео

Регистрация Запомнить меня
Войти через:  Facebook Google Twitter Vk Yandex Mail.ru

Evergreen Terrace - The Damned - таба, видео

Печатать
Просмотров: 93
     Only tabd what i think, thats why its an intro so ill put up the rest when i 
figure it out but for now enjoy
   :Guitar 1: (0:00-0:39)   _________________
 D|-----------------------------|            |
 A|-----------------------------|            |
 F|-----------------------------|            |
 C|-----------------------------|            |
 G|---------2001002001002-2-----|            |
 C|-(12)\\\-2001002001002-2-----|            |
             ** ** ** **                     |
   :Guitar 2: (0:05-0:40)                    |
 D|---------------------|                    |
 A|-16--16--16-~--------|                    |
 F|-15--13--12-~--------|                    |
 C|-X---X---X--~--------|    INTRO           |
 G|-13--11--10-~--------|                    |
 C|---------------------|                    |
   :Guitar 3: (0:05-0:40)                    |
 D|----------------------------|             |
 A|----------------------------|             |
 F|----------------------------|             |
 C|-9-9-9-11-11-11-1-1-1-1-1-1-|             |
 G|-9-9-9-11-11-11-1-1-1-1-1-1-|             |
 C|-9-9-9-11-11-11-1-1-1-1-1-1-|             |
    * * * ** ** ** * * * * * *               |             
                           __________________|
     VERSE    (0:42-1:03)                         (0:53-1:00)
 D|-----------------------------------------------|---------|
 A|-----------------------------------------------|191919---|
 F|------------------------8-10-11-13-13-15-16-18-|181818---|
 C|-------1-1-1-----1-1-1--x-x--x--x--x--x--x--x--|---------|
 G|-\\-2--1-1-1--2--1-1-1--6-8--9--11-11-13-14-16-|---------|
 C|-\\-2--1-1-1--2--1-1-1-------------------------|---------|
          
             (1:03-1:21)
 D|-13--13--13--13--13-13--13------|
 A|-17--17--17--17--17-17--17------|
 F|--------------------------------|
 C|--------------------------------|
 G|---00--00--00--00--0--0---00----|
 C|---00--00--00--00--0--0---00----|
      **  **  **  **  *  *   **
             
              (1:22-1:26)
 D|---------------------|
 A|---------------------|
 F|-4~/-6---------------|
 C|-x~/-x---------------|
 G|-2~/-4--h9p8~~-------| 
 C|---------------------|

   CHORUS    (1:27-1:48) (i think,play around)                  
 D|-----------------------------------|
 A|-----------------------------------|
 F|-8-8-11-11-10-6-6-4-4-6-6-8-8-xx---|
 C|-x-x-x--x--x--x-x-4-4-6-6-8-8-xx---|
 G|-6-6-9--9--8--4-4-2-2-4-4-6-6-xx---|
 C|-----------------------------------|

 D|--------------------|
 A|--------------------|
 F|--------------------|
 C|--------------------|
 G|--------------------|
 C|--------------------|

it's OK, it's OK, it's OK we've seen enough.
staring straight, staring straight, straight into the setting sun.
let the light burn our retinas and our callused skin
all you will have is anger and the money you cash in

wishing to contact, but contracts put us out
you can fool us once but we won't be the same again

desperately seeking the fallen, the damaged, and the weakened, and the used
how can you see where you're going when all these burning bridges block your view

we know what you need
we know what you want

crawling up from the bottom of the list
you have fooled us once but now thing's have changed

this song will play your death

on and on we go without you
Добавлено: 29.06.2012
Вам также может быть интересно:
Другие материалы по этой песне:
  • Аккорды и текст

Страница создана 29.06.2012
http://primanota.ru/evergreen-terrace/the-damned-chords.htm
Привет, Гость.
Предлагаем пройти революционный курс по гитаре.
Подарок от PrimaNota.Ru, забирай!