PrimaNota.ru - самый крупный в мире бесплатный архив песенных текстов, аккордов, табулатур и нот


Evergreen Terrace - Sending Signals - таба, видео

Регистрация Запомнить меня
Войти через:  Facebook Google Twitter Vk Yandex Mail.ru

Evergreen Terrace - Sending Signals - таба, видео

Печатать
Просмотров: 96
This is my second tab. I have a guitar this time. its played half a step down in drop d

intro

------|
---8--|
------|
------|
------|
------|

-------|
--7-8b-| (repeat 4xs)
-6-9---|
-------|
-------|
-------|

intro prt. 2

-------------------|
-------------------|
-------------------|
-0-0-0-------------|
-0-0-0-------------|
-0-0-0-(pick slde)-|

Verse 1
------------------------------      ------------------------|
------------------------------      --6-8s10s8-6-6-8s10s8---| (play the whole
-------------7--7-9--9-10-----      -7----------7--------7--|  section 4 xs)
-0--0-0--0-0--------------2x--      ------------------------|
-0--0-0--0-0-5--5-7--7-8------      ------------------------|
-0--0-0--0-0------------------      ------------------------|
         Pre-Chorus    (listen to the song to find strumming pattern)
----------------------------------------------------------------|
----------------------------------------------------------------|
--10-12--9--14--5--7--9-10-----------------15-14-12-9-----------|
---------------------------Play multiple------------------------|
--8--10--7--12--3--5--7-8----times then----13-12-10-7-----------|2xs
----------------------------------------------------------------|
Chorus (listen to song to find strumming pattern)
-------------------------------------------------------|
-------------------------------------------------------|
-7-10-5-10-12-10-------10-10-9-7-5-10-12-10------------|
-----------------(3xs)---------------------------------|
-5-8--3-8--10-8--------8--8--7-5-3-8--10-8-------------|
-------------------------------------------------------|
Verse 2
------------------------------      --------------------------------|
------------------------------      --6s8s10s8s6-6s8s10s8s6---------|(whole
--------------7--7-5--5-10---- 2x   -7----------7----------7--------| thing
-0--0-0--0-0------------------      --------------------------------| Four
-0--0-0--0-0--5--5-3--3-8-----      --------------------------------| Times)
-0--0-0--0-0------------------      --------------------------------|

breakdown (listen to song for strumming pattern)
------------------------------------------------------|
------------------------------------------------------|
-7-7s5s9-5-5s12-3-3s14-5-5s12-------------------------|2xs
------------------------------------------------------|
-5-5s3s7-3-3s10-1-1s12-3-3s10-------------------------|
------------------------------------------------------|

solo pt. 1

(slowly let down on wah pedal)

---------------------------------------------------------------|
-8--8--8--8--8--8--8br-8br-6--8br-8br---8br-8br-6--------------|
--10-10-10-10-10-10-------------------7------------------------|2xs
---------------------------------------------------------------|
---------------------------------------------------------------|
---------------------------------------------------------------|

pt.2

-15s17-15s17-15-13-15----13-12-----------------------------------|
-------------------------------13--------------------------------|
----------------------------------12-----------------------------|
-------------------------------------15-14-----------------------|
-------------------------------------------15--------------------|
-----------------------------------------------------------------|

-----------------------------------------------------------------|
-----------------------------------------------------------------|
-------------s17-15-12----12-------------------------------------|
-s12-s14-s15-----------15----15-14-------------------------------|
-----------------------------------15----------------------------|
-----------------------------------------------------------------|

-17p13--17p13--17p13-------15p12--15p12--15p12-------------------|
------15-----15-------(4xs)-----13-----13-----(4xs)--------------|
-----------------------------------------------------------------|
-----------------------------------------------------------------|
-----------------------------------------------------------------|
-----------------------------------------------------------------|

-13p10--13p10--13p10------15p12--15p12--15p12---------18-17-15------|
------11-----11-----(4xs)------13-----13-----13-(2xs)---------17-18-|
--------------------------------------------------------------------|
--------------------------------------------------------------------|
--------------------------------------------------------------------|
--------------------------------------------------------------------|

Chorus

Outro

-----------------------------------------------------------------|
-----------------------------------------------------------------| 2 times
-----------------------------------------------------------------|let last
-----------------------------------------------------------------|note
-0-0-0-0-0-0-0-0-0-0-0-0-0--8--3-3-3-3-3--8--5-5-5-5-5-3---------|ring
-0-0-0-0-0-0-0-0-0-0-0-0-0--8--3-3-3-3-3--8--5-5-5-5-5-3---------|
Добавлено: 29.04.2012
Другие материалы по этой песне:

Страница создана 29.04.2012
http://primanota.ru/evergreen-terrace/sending-signals-chords.htm
Привет, Гость.
Предлагаем пройти революционный курс по гитаре.
Подарок от PrimaNota.Ru, забирай!