PrimaNota.ru - самый крупный в мире бесплатный архив песенных текстов, аккордов, табулатур и нот


Evergreen Terrace - No Donnie These Men Arent Nihilst - бас-таба, видео

Регистрация Запомнить меня
Войти через:  Facebook Google Twitter Vk Yandex Mail.ru

Evergreen Terrace - No Donnie These Men Arent Nihilst - бас-таба, видео

Печатать
Просмотров: 112
|----------|
|----------|
|----------|
|-0-2-3-1~-|

|--------------------|    |--------------------|
|--------------------|    |--------------------|
|--------------------| x3 |--------------------| x1
|-0000000000-000-000-|    |-0000000000-0-2-3-1-|

|--------------|    |----------------|
|--------------|    |----------------|
|--------------| x3 |----------------| x1 
|-00-0-0-00000-|    |-00-0-0-0-2-3-1-|

|--------------------------------------------|
|--------------------------------------------|
|--------------------------------------------| x1
|-0000000088888888101010101010101010-7h8-7h8-|

|--------------------------------------------|
|--------------------------------------------|
|--------------------------------------88888-| x1
|-0000000088888888101010101010101010-0-------|

|--------------------------------------------|
|--------------------------------------------|
|--------------------------------------------| x1
|-0000000088888888101010101010101010-7h8-7h8-|

|----------------------------------------------------|
|----------------------------------------------------|
|--------------------------------------88888---88888-| x1
|-0000000088888888101010101010101010-0-------0-------|

|-------------|
|-------------|
|-------------| x1
|-00-00-00-00-|

|--------------------------------------------------------|
|--------------------------------------------------------|
|--------------------------------------------------------| x1
|-00-00-00-000-00-000-00-000-00-000-00-000-00-000-00-000-|

|---------|
|---------|
|---------| x1
|-0-0-0-0-|

|-------------------------|
|-------------------------|
|---------1-0-----0-------| x4
|-0-0-0-0-----3-2---3-2-0-|

|---------|
|---------|
|---------| x1
|-0-0-0-0-|

|------------------------------|
|------------------------------|
|------------------------------| x4
|-0-0-0-0-0-0-32-0-0-0-0-32-87-|

|-----------------------------------|
|-----------------------------------|
|-----------------------------------| x1
|-0-0-0-0-0-0-32-0-0-0-0-32-87-32-87|

|---------------------------------------------------------|
|---------------------------------------------------------|
|---------------------------------------------------------| x1
|-00-000-00-000-00-000-00-000-00-000-00-000-00-000-00-000-|

|----|
|----|
|----| x1
|-0~-|
Добавлено: 29.07.2012
Другие материалы по этой песне:
  • Аккорды и текст

Страница создана 29.07.2012
http://primanota.ru/evergreen-terrace/no-donnie-these-men-arent-nihilst-chords.htm
Привет, Гость.
Предлагаем пройти революционный курс по гитаре.
Подарок от PrimaNota.Ru, забирай!