PrimaNota.ru - самый крупный в мире бесплатный архив песенных текстов, аккордов, табулатур и нот


Evergreen Terrace - No Donnie These Men Are Nihilist - текст песни, таба, бас-таба, видео

Регистрация Запомнить меня
Войти через:  Facebook Google Twitter Vk Yandex Mail.ru

Evergreen Terrace - No Donnie These Men Are Nihilist - текст песни, таба, бас-таба, видео

Печатать
Просмотров: 168
Generally this is played in D but mine is tuned to C right now, which just means its the
same but lower.

It's not 100% correct, but its pretty close.

=======================
1. Intro
=======================
-It's got some crap right before it goes into the song, but just find something that
the intro well and play it. Personally I like doing some open chords combined with  those
hardcore harmonics... you know what I'm talking about. (norma Jean is crazy about them) Anyway...
============================================================
e|-----------|
b|-----------|
g|-----------|
d|-----------|
a|--0-2-3-1--|
D|--0-2-3-1--|

==================
2. Guitar 1
This part one guitar will do 3 times...
e|------------------|
b|------------------|
g|------------------|
d|------------------|
a|--000000000--0-0--|
D|--000000000--0-0--|
And then finish up with this... and then do the whole thing all over again.
e|----------------------|
b|----------------------|
g|----------------------|
d|----------------------|
a|--000000000--0-2-3-1--|
D|--000000000--0-2-3-1--|

====================
3. Guitar 2
This is the fun part... I usually play it using really fast picking the first time (I
on the note as long as usual, I'm just playing it faster...if that makes sense) and then
this the second time.
e|-------------------------------------------------------------------------------------------------|
b|--------------------------------------15-15-15-15------------------------------------------------|
g|--------------14-14-14-14-12-12-12-12-------------10-10-10-10-10-10-10-10-12-12-12-12-10-10-9-9--|
d|--12-12-12-12------------------------------------------------------------------------------------|
a|-------------------------------------------------------------------------------------------------|
D|-------------------------------------------------------------------------------------------------|

====================
4. Both guitars play twice
e|-----------------------------------------------------------------------------------------------|
b|-----------------------------------------------------------------------------------------------|
g|-----------------------------------------------------------------------------------------------|
d|-----------------------------------------------------------------------------------------------|
a|--0-0-0-0-0-8-8-8-8-8-10-10-10-10-10-8-8-8-8-8-0-0-0-0-0-8-8-8-8-8-10-10-10-10-10---8-8-8-8-8--|
D|--0-0-0-0-0-8-8-8-8-8-10-10-10-10-10-8-8-8-8-8-0-0-0-0-0-8-8-8-8-8-10-10-10-10-10-0------------|

====================
5. Both guitars play four times
e|------------------------|
b|------------------------|
g|------------------------|
d|------------------------|
a|--00-00000-00000-00000--|
D|--00-00000-00000-00000--|

====================
6. BREAKDOWN!!
e|-----13----13----13-----13----13-----13----13-----13----13-----13----------|
b|-----16----16----16-----16----16-----16----16-----16----16-----16----------|
g|---------------------------------------------------------------------------|
d|---------------------------------------------------------------------------|
a|--00----00----00----000----00----000----00----000----00----000----00-------|
D|--00----00----00----000----00----000----00----000----00----000----00-------|
they do it more than this... but you get it...

===================
7. played six times... after the first time the other guitar does harmonics with this
I just messed around while I was writing this and I have what I think they may be at the
but I'm not sure...
e|----------------------------|
b|----------------------------|
g|----------------------------|
d|----------------------------|
a|--0-0-0-0--1-0-------0------|
D|--0-0-0-0------3-2-3---3-2--|

==================
8. Both guitars play leading into the final breakdown...
e|-----------------------------------------------|
b|-----------------------------------------------|
g|-----------------------------------------------|
d|-----------------------------------------------|
a|--0-0-0-0-----0-0-0-0-0-0-3-2-0-0-0-0-3-2-8-7--|
D|--0-0-0-0-----0-0-0-0-0-0-3-2-0-0-0-0-3-2-8-7--|
let that last open note in the first set ring out and the second part of this is played
times but on the last time you do that 3-2-8-7--| thing twice and then 1 open palm
listen to the song, you'll get it.

then just do the breakdown again and you got it.


What I think the harmonics to part 7.
e|-----------------------------|
b|-----------------------------|
g|-----------------------------|
d|-----------1-0--------0------|
a|--0-0-0-0------1-0-1----1-0--|
D|--0-0-0-0--------------------|
Добавлено: 10.07.2012
Другие материалы по этой песне:
  • Аккорды и текст

Страница создана 04.03.2012
http://primanota.ru/evergreen-terrace/no-donnie-these-men-are-nihilist-chords.htm
Привет, Гость.
Предлагаем пройти революционный курс по гитаре.
Подарок от PrimaNota.Ru, забирай!