PrimaNota.ru - самый крупный в мире бесплатный архив песенных текстов, аккордов, табулатур и нот


Evergreen Terrace - My Heart Beats In Breakdowns - текст песни, таба, бас-таба, видео

Регистрация Запомнить меня
Войти через:  Facebook Google Twitter Vk Yandex Mail.ru

Evergreen Terrace - My Heart Beats In Breakdowns - текст песни, таба, бас-таба, видео

Печатать
Просмотров: 183
Новый альбом группы 'Черный Кузнец' по культовому сериалу 'Сверхъестественное'!
As recorded by Evergreen Terrace
                   (From the 2002 Album BURNED ALIVE BY TIME)

Words and Music by Evergreen Terrace
Arranged by Evergreen Terrace
Transcribed by Jonathan Rose

Gtr I (D A D G B E) - 'Untitled'
Gtr II (D A D G B E) - 'Untitled'
Gtr III (D A D G B E) - 'Untitled'

 Intro        "Busted scars cut wide.."
  Dancefight Q=200
               D5
 4/4
  Gtrs I, II
               PM-----------------------------------------------|      PM
  W            E E E Q  E E E   H    E E E E   E E E Q  E E E   H    E E Q   4x
|----------||-----------------|--------------|----------------|--------------||
|----------||o----------------|--------------|----------------|-------------o||
|----------||-----------------|--------------|----------------|--------------||
|----------||-----------------|--------------|----------------|--------------||
|----------||o-0-0-0----0-0---|------0-0-0---|-0-0-0----0-0---|--------0----o||
|----------||--0-0-0----0-0---|------0-0-0---|-0-0-0----0-0---|--------0-----||


  N.C.
  Gtr I
   E E  E E  E E  E E    E  E  E E  E E  E E
|---------------------|----------------------|
|----0----0----0----0-|-----0----0----0----0-|
|--3----3----3----3---|--3-----3----3----3---|
|---------------------|----------------------|
|---------------------|----------------------|
|---------------------|----------------------|
|
| Gtr II
|  E E  E E  E E  E E    E  E  E E  E E  E E
|---------------------|----------------------|
|----7----7----7----7-|-----7----7----7----7-|
|-10---10---10---10---|-10----10---10---10---|
|---------------------|----------------------|
|---------------------|----------------------|
|---------------------|----------------------|
|
| Gtr III
|                                        PM---
|  W                    +H.              Q
|---------------------|----------------------|
|---------------------|----------------------|
|---------------------|----------------------|
|--0------------------|-(0)--------------0---|
|--0------------------|-(0)--------------0---|
|--0------------------|-(0)--------------0---|


                                   G5G#E#5
   E E  E  E  E E  E E    E E  E E E E E E
|----------------------|--------------------||
|----0-----0----0----0-|----0----0----------||
|--3----3-----3----3---|--3----3------------||
|----------------------|-----------5-6-3----||
|----------------------|-----------5-6-3----||
|----------------------|-----------5-6-3----||
|
|  E E  E  E  E E  E E    E E  E E E E E E
|----------------------|--------------------||
|----7-----7----7----7-|----7----7----------||
|-10---10----10---10---|-10---10------------||
|----------------------|-----------5-6-3----||
|----------------------|-----------5-6-3----||
|----------------------|-----------5-6-3----||
|
|-|
|  Q    H.                W
|----------------------|--------------------||
|----------------------|--------------------||
|----------------------|--------------------||
|--0-------------------|--------------------||
|--0-------------------|--------------------||
|--0-------------------|--------------------||


 "The brightest eyes can.."
  D5    C#5   G#5           G5G#E#5   D5    C#5   G#5           G5G#E#5
  Gtrs I, II
  E E E E E E E E   E E E E E E E E   E E E E E E E E   E E E E E E E E
|-----------------|-----------------|-----------------|------------------|
|-----------------|-----------------|-----------------|------------------|
|-------6-6-6-----|-----------------|-------6-6-6-----|------------------|
|-0-0-0-6-6-6-6-6-|-6-6-6-6-5-6-3-3-|-0-0-0-6-6-6-6-6-|-6-6-6-6-5-6-3-3--|
|-0-0-0-4-4-4-6-6-|-6-6-6-6-5-6-3-3-|-0-0-0-4-4-4-6-6-|-6-6-6-6-5-6-3-3--|
|-0-0-0-------6-6-|-6-6-6-6-5-6-3-3-|-0-0-0-------6-6-|-6-6-6-6-5-6-3-3--|


  D5    C#5   G#5           G5G#E#5   D5    C#5   G#5           G5G#E#5
  E E E E E E E E   E E E E E E E E   E E E E E E E E   E E E E E E E E
|-----------------|-----------------|-----------------|------------------|
|-----------------|-----------------|-----------------|------------------|
|-------6-6-6-----|-----------------|-------6-6-6-----|------------------|
|-0-0-0-6-6-6-6-6-|-6-6-6-6-5-6-3-3-|-0-0-0-6-6-6-6-6-|-6-6-6-6-5-6-3----|
|-0-0-0-4-4-4-6-6-|-6-6-6-6-5-6-3-3-|-0-0-0-4-4-4-6-6-|-6-6-6-6-5-6-3----|
|-0-0-0-------6-6-|-6-6-6-6-5-6-3-3-|-0-0-0-------6-6-|-6-6-6-6-5-6-3----|


    N.C.                                                              C#5
    PM--|   PM|   PM--|   PM|           PM--|   PM|   PM--|   PM|
    E E E E E E E E   E E E E E E E E   E E E E E E E E   E E E E E E Q
||------------------|-----------------|-----------------|-----------------||
||o-----------------|-----------------|-----------------|----------------o||
||------------------|-----------------|-----------------|-----------------||
||------------------|-----------------|-----------------|-------------6---||
||o-------4---------|-----------------|-------4---------|-------------4--o||
||--0-0-0---0-0-6-0-|-0-5-0-0-5-6-5-3-|-0-0-0---0-0-6-0-|-0-5-0-0-5-6-----||


   "Exit anger through.."
    D5    N.C.   D5    N.C.       D5    N.C.   D5    N.C.
    PM-|         PM--|            PM-|         PM--|
    Q  Q  H      E E E H    +E    Q  Q  H      E E E H    +E
||-------------|----------------|------------|-----------------||
||o-------0----|-------0----(0)-|-------0----|-------0----(0)-o||
||--------3----|-------3----(3)-|-------3----|-------3----(3)--||
||-------------|----------------|------------|-----------------||
||o-0--0-------|-0-0-0----------|-0--0-------|-0-0-0----------o||
||--0--0-------|-0-0-0----------|-0--0-------|-0-0-0-----------||


  N.C.
 2/4
  Gtr I
  H      Q  Q    Q  Q    Q  Q
|------|-------|-------|-------|
|------|-------|-------|-------|
|------|-------|-------|-------|
|------|-------|-------|-------|
|------|-------|-------|-------|
|-0----|-3--0--|-6--5--|-3--5--|


    D5    N.C.    D5    N.C.         D5    N.C.    D5    N.C.
   4/4
    Gtr I
    PM-|          PM--|              PM-|          PM--|
    Q  Q   H      E E E  H     +E    Q  Q   H      E E E  H     +E
||--------------|------------------|-------------|--------------------||
||o--------0----|--------0-----(0)-|--------0----|--------0-----(0)--o||
||---------3----|--------3-----(3)-|--------3----|--------3-----(3)---||
||--------------|------------------|-------------|--------------------||
||o-0--0--------|-0-0-0------------|-0--0--------|-0-0-0-------------o||
||--0--0--------|-0-0-0------------|-0--0--------|-0-0-0--------------||
|
|   Gtr II
|   PM-|          PM--|              PM-|          PM--|
|   Q  Q   H      E E E  H     +E    Q  Q   H      E E E  H     +E
||--------------|------------------|-------------|--------------------||
||o--------7----|--------7-----(7)-|--------7----|--------7-----(7)--o||
||--------10----|-------10----(10)-|-------10----|-------10----(10)---||
||--------------|------------------|-------------|--------------------||
||o-0--0--------|-0-0-0------------|-0--0--------|-0-0-0-------------o||
||--0--0--------|-0-0-0------------|-0--0--------|-0-0-0--------------||


   "Trying hard to reach.."
    Punch & Kick Q=225
    D5   E#5D5   G#5G5 E#5G5   D5   E#5D5   G#5G5 E#5G5
    Gtrs I, II
    H    Q  Q    Q  Q  Q  Q    H    Q  Q    Q  Q  Q  Q   4x
||-------------|-------------|------------|--------------||
||o------------|-------------|------------|-------------o||
||-------------|-------------|------------|--------------||
||--0----3--0--|-6--5--3--5--|-0----3--0--|-6--5--3--5---||
||o-0----3--0--|-6--5--3--5--|-0----3--0--|-6--5--3--5--o||
||--0----3--0--|-6--5--3--5--|-0----3--0--|-6--5--3--5---||


   Breakdown
    Into The Pit Q=205
    D5                        N.C.      D5                        N.C.
    PM----------------------|           PM----------------------|
    E E E E E E E E   E E E E E E E E   E E E E E E E E   E E E E E E E E
||------------------|-----------------|-----------------|------------------||
||o-----------------|---------3-3-3-3-|-----------------|---------3-3-3-3-o||
||------------------|---------6-6-6-6-|-----------------|---------6-6-6-6--||
||------------------|-----------------|-----------------|------------------||
||o-0-0---0---0-0-0-|---0---0---------|-0-0---0---0-0-0-|---0---0---------o||
||--0-0---0---0-0-0-|---0---0---------|-0-0---0---0-0-0-|---0---0----------||


    D5
   2/2
    PM--------------------------------------------------|
    E E E E Q  E E   E E H.        E E E E Q  E E   E E H.
||-----------------|-------------|----------------|------------||
||o----------------|-------------|----------------|-----------o||
||-----------------|-------------|----------------|------------||
||-----------------|-------------|----------------|------------||
||o-0-0---0----0-0-|---0---------|-0-0---0----0-0-|---0-------o||
||--0-0---0----0-0-|---0---------|-0-0---0----0-0-|---0--------||


   "Distance will be the.."
    D5
    PM----|        PM----------------------|
    E E E E H      E E E E E E E E   E E E E H      W
||---------------|-----------------|--------------|-------||
||o--------------|-----------------|--------------|------o||
||---------------|-----------------|--------------|-------||
||---------------|-----------------|--------------|-------||
||o-0-0---0------|-0-0-0-0-0-0-0-0-|-0-0---0------|------o||
||--0-0---0------|-0-0-0-0-0-0-0-0-|-0-0---0------|-------||


  D5                                                   N.C.
  PM----|        PM----------------------|
  E E E E H      E E E E E E E E   E E E E H      H     H
|--------------|-----------------|--------------|------------|
|--------------|-----------------|--------------|-------7----|
|--------------|-----------------|--------------|------10----|
|--------------|-----------------|--------------|------------|
|-0-0---0------|-0-0-0-0-0-0-0-0-|-0-0---0------|------------|
|-0-0---0------|-0-0-0-0-0-0-0-0-|-0-0---0------|------------|


  D5
  PM----|        PM----------------------|
  E E E E H      E E E E E E E E   E E E E H      W
|--------------|-----------------|--------------|------*|
|--------------|-----------------|--------------|------*|
|--------------|-----------------|--------------|------*|
|--------------|-----------------|--------------|------*|
|-0-0---0------|-0-0-0-0-0-0-0-0-|-0-0---0------|------*|
|-0-0---0------|-0-0-0-0-0-0-0-0-|-0-0---0------|------*|


Duration Legend
---------------
W - whole; H - half; Q - quarter; E - 8th; S - 16th; T - 32nd; X - 64th; a - acciaccatura
+ - note tied to previous; . - note dotted; .. - note double dotted
Uncapitalized letters represent notes that are staccato (1/2 duration)
Irregular groupings are notated above the duration line
Duration letters will always appear directly above the note/fret number it represents the
duration for.  Duration letters with no fret number below them represent rests.  Multi-
bar rests are notated in the form Wxn, where n is the number of bars to rest for.  Low
melody durations appear below the staff

Tablature Legend
----------------
 h   - hammer-on
 p   - pull-off
 b   - bend
 pb  - pre-bend
 r   - bend release (if no number after the r, then release immediately)
 /\  - slide into or out of (from/to "nowhere")
 s   - legato slide
 S   - shift slide
  - natural harmonic
[n]  - artificial harmonic
n(n) - tapped harmonic
 ~   - vibrato
 tr  - trill
 T   - tap
 TP  - trem. picking
 PM  - palm muting
\n/  - tremolo bar dip; n = amount to dip
 \n  - tremolo bar down
 n/  - tremolo bar up
/n\  - tremolo bar inverted dip
 =   - hold bend; also acts as connecting device for hammers/pulls
 <>  - volume swell (louder/softer)
 x   - on rhythm slash represents muted slash
 o   - on rhythm slash represents single note slash

Misc Legend
-----------
 |  - bar
||  - double bar
||o - repeat start
o|| - repeat end
*|  - double bar (ending)
 :  - bar (freetime)
 $  - Segno
 &  - Coda
Tempo markers -  = BPM(8/16=s8/s16), where s8 = swing 8ths, s16 = swing 16ths


Добавлено: 24.02.2012
Другие материалы по этой песне:

Страница создана 24.02.2012
http://primanota.ru/evergreen-terrace/my-heart-beats-in-breakdowns-chords.htm
Привет, Гость.
Предлагаем пройти революционный курс по гитаре.
Подарок от PrimaNota.Ru, забирай!