PrimaNota.ru - самый крупный в мире бесплатный архив песенных текстов, аккордов, табулатур и нот


Evergreen Terrace - Heavy Number One - таба, бас-таба, видео

Регистрация Запомнить меня
Войти через:  Facebook Google Twitter Vk Yandex Mail.ru

Evergreen Terrace - Heavy Number One - таба, бас-таба, видео

Печатать
Просмотров: 165
Evergreen Terrace-Heavy Number One
Drop D

Intro:
(00:00)
"Dying...In this dead world"
E------------|
B------------|
G------------|
D------------|
A-00-3-2-6-5-|
D-00-3-2-6-5-|

(00:06)
E------------------------------|
B------------------------------|
G------------------------------|
D------------------------7---7-|
A------------------------5---5-|
D-00-1-0-X-X-1p0-1-00-000-000--|

(00:18)
"Surrender..."
E------------|
B------------|
G------------|
D------------|
A---5-4--5-4-|
D-00---00----|

(00:29)
"Destroy the past..."
E--------------------------------------|
B--------------------------------------|
G--------------------------------------|
D--------------------------------------|
A-0000-00000-X-X-00000-000-00000-X-000-|
D-0000-00000-X-X-00000-000-00000-X-000-|

(00:42)
"Still alive..."
PLAY ABOVE(^) RIFF [(00:39)]

(00:54)
E-------------------------------------------------------------|
B-------------------------------------------------------------|
G-----------------------------------------------10101010-9999-|
D-7777-7777777-777-10101010-1010101010-10101010-8-8-8-8--7777-|
A-5555-5555555-555-8-8-8-8--8-8-8-8-8--8-8-8-8----------------|
D-------------------------------------------------------------|

(1:18)
"The curse is set, the stone is cast"
E---------------------|
B---------------------|
G---------------------|
D---------------------|
A-000-000-000-000-000-|
D-000-000-000-000-000-|

(1:37)
E-----------------------------------------|
B-----------------------------------------|
G-----------------------------------------|
D-----------------------------------------|
A-00-1-00-X-X-1-0-1-0-1-00-1-0-3-2-0-6-5--|
D-00-1-00-X-X-1-0-1-0-1-00-1-0-3-2-0-6-5--|

(1:52)
"From Freinds..."
E-------------------------------------------------------|
B-------------------------------------------------------|
G-------------------------------------------------------|
D-------------------------------------------------------|
A-000-6p5p0-0-3p1p0-000-6p5p0-0-3p1p0-000-6p5p0-0-3p1p0-|
D-000---------------000---------------000---------------|

(1:58)
Harmony:
Gtr 1:
E-----------|
B-----------|
G-----------|
D-----------|
A-5h6h6h6h6-|
D-----------|

Gtr 2:
E-----------|
B-----------|
G-----------|
D-5h6h6h6h6-|
A-----------|
D-----------|

Gtr 1:
E--------------------------------------------------------------------|
B--------------------------------------------------------------------|
G--------------------------------------------------------------------|
D--------------------------------------------------------------------|
A-000-6p5p0-0-3p1p0-000-6p5p0-0-3p1p0-000-6p5p0-0-3p1p0-000-5h6h6h6h6|
D-000---------------000---------------000---------------000----------|

Gtr 2:
E---------------------------------------------------------------|
B---------------------------------------------------------------|
G---------------------------------------------------------------|
D-----6p5p0-0-3p1p0---6p5p0-0-3p1p0----6p5p0-0-3p1p0---5h6h6h6--|
A-000--------------000-------------000--------------000---------|
D-000--------------000-------------000--------------000---------|

(2:13)
E-------------------------|
B-------------------------|
G-------------------------|
D-------------------------|
A-000-X-000-X-000-X-000-X-|
D-000-X-000-X-000-X-000-X-|

(2:25)
E---------|
B---------|
G---------|
D---------|
A-000-888-|
D-000-888-|

The Rest of the song is a cover of a Depeche Mode song called "Enjoy the Silence"I don't 
like tabbing it. sorry.
art_vandelay_1@hotmail.com
Email if you have something to say.
Добавлено: 30.05.2012
Другие материалы по этой песне:
  • Аккорды и текст

Страница создана 03.05.2012
http://primanota.ru/evergreen-terrace/heavy-number-one-chords.htm
Привет, Гость.
Предлагаем пройти революционный курс по гитаре.
Подарок от PrimaNota.Ru, забирай!