PrimaNota.ru - самый крупный в мире бесплатный архив песенных текстов, аккордов, табулатур и нот


Evergreen Terrace - Burned Alive By Time - текст песни, таба, видео

Регистрация Запомнить меня
Войти через:  Facebook Google Twitter Vk Yandex Mail.ru

Evergreen Terrace - Burned Alive By Time - текст песни, таба, видео

Печатать
Просмотров: 122
-------------------------------------------------------------------------------
                             Burned Alive By Time – Evergreen Terrace
-------------------------------------------------------------------------------
Tabbed by: Schecter86
Email: Zachmoe25@msn.com

The timing and rhythm might be off somewhere, so listen to the song and figure
it out, be nice and rate or email with comments, thanks

Tuning: Drop C (C-G-C-F-A-D)

Intro Part: 4x (Listen for Timing and Rhythm) 
e|---------------------------------------------------------------------------|
B|---------------------------------------------------------------------------|
G|-------------------------3x------------------------------------------------|
D|--2-2-2--2-2-2--5-5-4-5----------------------------------------------------|
A|--2-2-2--2-2-2--5-5-4-5----------------------------------------------------|
E|--2-2-2--2-2-2--5-5-4-5----------7-7-7-5-5-5-8-8-8-4-4-4-------------------|
Pre-Verse Thing: 4x                   
e|---------------------------------------------------------------------------|
B|---------------------------------------------------------------------------|
G|---------------------------------------------------------------------------|
D|--2-2-2--------------------------------------------------------------------|
A|--2-2-2--------------------------------------------------------------------|
E|--2-2-2--------------------------------------------------------------------|
Verse: 3x
e|---------------------------------------------------------------------------|
B|---------------------------------------------------------------------------|
G|------------------------------5-5-5--5-5-5---------------------------------|
D|--2-2-2--2-2-2--2-2-2--2-2-2--5-5-5--5-5-5--5-5-5--5-5-5-------------------|
A|--2-2-2--2-2-2--2-2-2--2-2-2--3-3-3--3-3-3--5-5-5--5-5-5-------------------|
E|--2-2-2--2-2-2--2-2-2--2-2-2----------------5-5-5--5-5-5-------------------|
Little Riff Thing: 1x
e|---------------------------------------------------------------------------|
B|---------------------------------------------------------------------------|
G|---------------------------------------------------------------------------|
D|---------------------------------------------------------------------------|
A|------------------------7~-------------------------------------------------|
E|--0-4-5--0-4-5--0-4/7-0----------------------------------------------------|
Next Verse: Lots of Triplets!  Just Listen for the Rhythm!
e|---------------------------------------------------------------------------|
B|---------------------------------------------------------------------------|
G|---------------------------------------------------------------------------|
D|--2-2-2--2-2-2-------5--4--2-----------------------------------------------|
A|--2-2-2--2-2-2-------5--4--2-----------------------------------------------|
E|--2-2-2--2-2-2-------5--4--2-----------------------------------------------|
After Base Part: Guitar 1: 4x
e|--7--------7-8-7--8-8-8-8-8-8--7-7-7-7-7-7--8-8-8-8-8-8--7-7-7-7-7-7--10-10-10-10-10-10-|
B|----8-----------------------------------------------------------------------------------|
G|------9~~~------------------------------------------------------------------------------|
D|----------------------------------------------------------------------------------------|
A|----------------------------------------------------------------------------------------|
E|----------------------------------------------------------------------------------------|
After Base Part: Guitar 2: 4x
e|---------------------------------------------------------------------------|
B|---------------------------------------------------------------------------|
G|---------------5-5-5-5-5-5---------------7-7-7-7-7-7-----------------------|
D|--2-2-2-2-2-2--5-5-5-5-5-5--5-5-5-5-5-5--7-7-7-7-7-7--4--5--4--------------|
A|--2-2-2-2-2-2--3-3-3-3-3-3--5-5-5-5-5-5--5-5-5-5-5-5--4--5--4--------------|
E|--2-2-2-2-2-2---------------5-5-5-5-5-5---------------4--5--4--------------|






Little Riff Thing: Guitar 1: 2x
e|-------------------------------------------------------------------------------------------|
B|-------------------------------------------------------------------------------------------|
G|--12-12-12-12-12-12--11-11-11--12-12-12-12-12-12--11-11-11--7-7-7-7-7-7--11-11-11-11-11-11-|
D|-------------------------------------------------------------------------------------------|
A|--10-10-10-10-10-10--9--9--9---10-10-10-10-10-10--9--9--9---5-5-5-5-5-5--9--9--9--9--9--9--|
E|-------------------------------------------------------------------------------------------|
Little Riff Thing 2: Guitar 2: Join in 2nd Time!
e|-------------------------------------------------------------------------------------------------|
B|-------------------------------------------------------------------------------------------------|
G|--16-16-16-16-16-16--14-14-14--16-16-16-16-16-16--14-14-14--11-11-11-11-11-11--14-14-14-14-14-14-|
D|-------------------------------------------------------------------------------------------------|
A|--14-14-14-14-14-14--12-12-12--14-14-14-14-14-14--12-12-12--9--9--9--9--9--9---12-12-12-12-12-12-|
E|-------------------------------------------------------------------------------------------------|
Ending: 4x
e|---------------------------------------------------------------------------|
B|---------------------------------------------------------------------------|
G|---------------4-4-4-4-4-4-------------------------------------------------|
D|--2-2-2-2-2-2--4-4-4-4-4-4--5-5-5-5-5-5--4-4-4-4-4-4----------------2~~----|
A|--2-2-2-2-2-2--2-2-2-2-2-2--5-5-5-5-5-5--4-4-4-4-4-4----------------2~~----|
E|--2-2-2-2-2-2---------------5-5-5-5-5-5--4-4-4-4-4-4----------------2~~----|




| /  slide up
| \  slide down
| h  hammer-on
| p  pull-off
| ~  vibrato
| +  harmonic
| x  Mute note
===============================================================================
Добавлено: 20.06.2012
Другие материалы по этой песне:
  • Аккорды и текст

Страница создана 12.03.2012
http://primanota.ru/evergreen-terrace/burned-alive-by-time-chords.htm
Привет, Гость.
Предлагаем пройти революционный курс по гитаре.
Подарок от PrimaNota.Ru, забирай!