PrimaNota.ru - самый крупный в мире бесплатный архив песенных текстов, аккордов, табулатур и нот


Evereve - Autumns Leave - таба, видео

Регистрация Запомнить меня
Войти через:  Facebook Google Twitter Vk Yandex Mail.ru

Evereve - Autumns Leave - таба, видео

Печатать
Просмотров: 156
                EVEREVE - Autumns Leave
                        Version 1.0 Martch 2002

Transcribed by: Vincent

For Questions, Comments, Newest Version, or Corrections contact
 Phil: at gerbeoflife@aol.com

.  - palm mute          /  - slide up to
 \  - slide down to      ~  - vibrato
 h  - hammer on          b  - bend
 p  - pull off            Suffixes for bend
                          ph - pinch harmonic
                           f - full bend    h - half bend
*  - see comment           r - release      t - tap bend
X  - percussion mute       ~ - vibrato bend
@  - slight palm mute     () - Hold note until next note
" - Tremolo until next note
' - Slower Tremolo until next note

Tune Gtr to B

Riff 1a:
|---------------------------------------------|
|---------------------------------------------|
|---------------------------------------------|
|---------------------------------------------|
|---------1-2-4---6-7------6--4---1-------6-2-|
|-4-------------------------------------------|


Riff 1b:
|---------------------------------------------|
|---------------------------------------------|
|---------------------------------------------|
|---------3-4-6---6-7------6--6---3-------8-4-|
|-6-------1-2-4---6-7--7-7-6--4---1---1-1-6-2-|
|-4---4-4---------4-5------4------------------|
     pm-+             pm-+           pm-+

Riff 2:
|---------------------------------------------|
|---------------------------------------------|
|-/8---6----------------/8---6-------6~-------|
|--------9-8-6-5~--------------9-8-6-----9-8~-|
|-----------------7-6~------------------------|
|---------------------------------------------|

Riff 3:                                 __________1.____________2. 
|--------------------------------------------------|--------------|
|--------------------------------------------------|--------------|
|--------------------------------------------------|--------------|
|-5~--5~--/10~--10~----6-7-6-5-6--5----------------|--------------|
|------------------------------------6---5---6---8-|-5-6-8-6-8-10-|
|--------------------------------------------------|--------------|

Riff 4a:
|---------------------------------------------------------------------------------|
|---------------------------------------------------------------------------------|
|-7--------------9--11--6--------------7---4-------------6--7--3-------------6--9-|
|-5--------------7--9---4--------------5---2-------------4--5--1-------------4--7-|
|---------------------------------------------------------------------------------|
|---------------------------------------------------------------------------------|

Riff 4b:
|---------------------------------------------------------------------------------|
|---------------------------------------------------------------------------------|
|-7---------7----9--11--6---------6----7---4---------4---6--7--3---------3---6--9-|
|-5---5-5-5-5----7--9---4---4-4-4-4----5---2---2-2-2-2---4--5--1---1-1-1-1---4--7-|
|---------------------------------------------------------------------------------|
|---------------------------------------------------------------------------------|
     pm---+                pm---+             pm---+              pm---+

The guitar stop then after voices...

Riff 5:
|------------------------------------------------------------------|
|--------------------b----b----------------------------------------|
|-16~------16-17~---19---19---16~----------------------------------|
|-------17------------------------17--16--16--16h17p16-15----------|
|---------------------------------------------------------17-16-14-|
|------------------------------------------------------------------|

Riff 6:
|-------------------------------------|
|----b----------b-------b----------b--|
|-16/ \---16-17/ \---17/ \---17-18/ \-|
|------17-----------------17----------|
|-------------------------------------|
|-------------------------------------|
  \______x 2_____/   \______x 2_____/

Riff 7:
|--------------------------------------------------------------------------------|
|-----------------b------------------------------------------------------ah--b---|
|-9~-----11----11/ \--8~-----12-11---12---14---16/17-14----16-14---20----20-/ \--|
|--------------------------------------------------------------------------------|
|--------------------------------------------------------------------------------|
|--------------------------------------------------------------------------------|

End
Добавлено: 04.07.2012
Вам также может быть интересно:
Другие материалы по этой песне:
  • Аккорды и текст

Страница создана 04.07.2012
http://primanota.ru/evereve/autumns-leave-chords.htm
Привет, Гость.
Предлагаем пройти революционный курс по гитаре.
Подарок от PrimaNota.Ru, забирай!