PrimaNota.ru - самый крупный в мире бесплатный архив песенных текстов, аккордов, табулатур и нот


Everclear - The New Disease - текст песни, таба, видео

Регистрация Запомнить меня
Войти через:  Facebook Google Twitter Vk Yandex Mail.ru

Everclear - The New Disease - текст песни, таба, видео

Печатать
Просмотров: 104
Song: The New Disease
Band: Everclear
Album: Ten Years Gone: The Best of Everclear 1994-2004


                    MAIN RIFF

E|----------------------|----------------------|
B|---9-13-9--9-11-9-----|---9-13-9--9-11-9-----|
G|-----------------10-8-|-----------------10-8-|
D|-10------10-----------|-11------11-----------|
A|----------------------|----------------------|
E|----------------------|----------------------|

When the rest of the band comes in, only the 
first half of the main riff is played.

              INTRO RHYTHM

E|-----------------|-----------------|
B|-----------------|-----------------|
G|-------------5555|------------3333-|
D|-6666----66665555|3333----33333333-|
A|-6666----66663333|3333----33331111-|
E|-4444----4444----|1111----1111-----|

                 VERSE

E|-----------------|-------------------|
B|-----------------|-------------------|
G|-------------5555|------------6666---|
D|-6666----66665555|3333----33336666---|3X
A|-6666----66663333|3333----33334444---|
E|-4444----4444----|1111----1111-------|
pm-------------------------------------|pm

E|-----------------|-------------------|
B|-----------------|-------------------|
G|-------------5555|--------66663333---|
D|-6666----66665555|3333----66663333---|1X
A|-6666----66663333|3333----44441111---|
E|-4444----4444----|1111---------------|
pm-------------------------------------|pm

                CHORUS

E|-----------------|-----------------|
B|-----------------|-----------------|
G|-----------------|6-6-6-6-44443333-|3X
D|-6-6-6-6-3-3-2222|6-6-6-6-44443333-|
A|-6-6-6-6-3-3-2222|4-4-4-4-22221111-|
E|-4-4-4-4-1-1-0000|-----------------|

E|-----------------|-----------------|
B|-----------------|-----------------|
G|-----------------|66666666---------|1X
D|-6-6-6-6-33332222|666666666--------|
A|-6-6-6-6-33332222|444444446--------|
E|-4-4-4-4-11110000|--------4--------|

      BRIDGE PT1

E|------------------|
B|-----4\-----------|
G|-----5\----44--66-|
D|-66666\--44446666-|
A|-66666\--44226644-|
E|-44444\--22--44---|

E|------------------|
B|---7--------------|
G|/8----------------|
D|------------------|
A|------------------|
E|------------------|

              BRIDGE PT2

E|----------------------------------|
B|-----4\------4\------4\-----------|
G|-----5\------5\------5\----44--66-|
D|-66666\--66666\--66666\--44446666-|
A|-66666\--66666\--66666\--44226644-|
E|-44444\--44444\--44444\--22--44---|

       INTERLUDE

E|------------------|
B|-----4\-----------|
G|-----5\------444--|4X
D|-666-6\--444-444--|
A|-666-6\--444-222--|
E|-444-4\--222------|

      OUTRO RIFF

E|------------------|
B|-9-9-9-9-9-9-8-7--|
G|--8-8-8-8-8-7-6-5-|
D|------------------|
A|------------------|
E|------------------|

 OUTRO RHYTHM

E|----------|
B|-44444----|
G|-55555----|4X
D|-66666----|
A|-66666----|
E|-44444----|


SONG ORDER:

MAIN RIFF 4X
MAIN RIFF W/ INTRO RHYTHM 4X
VERSE
MAIN RIFF W/ INTRO RHYTHM 2X
VERSE W/ MAIN RIFF
CHORUS W/ MAIN RIFF
BRIDGE PT1 4X
BRIDGE PT2 2X
VERSE (2nd Half W/ MAIN RIFF)
CHORUS W/ MAIN RIFF
INTERLUDE
BRIDGE PT1 4X
BRIDGE PT2 W/ OUTRO RIFF 4X
OUTRO RHYTHM W/ OUTRO RIFF

YOGI_LA_BEARO
Добавлено: 09.03.2012
Другие материалы по этой песне:
  • Аккорды и текст

Страница создана 09.03.2012
http://primanota.ru/everclear/the-new-disease-chords.htm
Привет, Гость.
Предлагаем пройти революционный курс по гитаре.
Подарок от PrimaNota.Ru, забирай!