PrimaNota.ru - самый крупный в мире бесплатный архив песенных текстов, аккордов, табулатур и нот


Everclear - Song From An American Movie Pt2 - таба, видео

Регистрация Запомнить меня
Войти через:  Facebook Google Twitter Vk Yandex Mail.ru

Everclear - Song From An American Movie Pt2 - таба, видео

Печатать
Просмотров: 69
Song From An American Movie Part Two
by Everclear
tabbed by Jamie Pankhurst (jamiepankhurst@hotmail.com)

*Intro + Verses*

The piece for guitar one is at the start and pops up
again throughout the song. You'll have to spot where.
Guitar two is in there all the time, and although you
can play the G C Em C on the bass it's best to have a
third guitar doing that too.

Guitar One:

e|--------------------------------------|
B|---3---3----3---3----3---3----3---3---|
G|-----4--------4--------4--------4-----|
D|-5--------5--------5--------5---------|
A|--------------------------------------|
E|--------------------------------------|

Guitar Two:

h = hammer on
p = pull off
e|--------------------------------------|
B|--------------------------------------|
G|--------------------------------------|
D|-------0-----0h2p0--------0-----0h2p0-|
A|----0h2---3-3----------0h2---3-3------|
E|-3-3---------------0-0----------------|

Guitar Three (optional):

     G        C         Em        C

Bass:

G|--------------------------------------|
D|--------------------------------------|
A|----------3-3----------------3-3------|
E|--3-3--------------0-0----------------|
     G       C        Em        C

*Chorus:*
(play with two guitars, one plays open chords, one plays
power chords. The Em is a high power chord, i.e.
     EADGBe      rather than    EADGBe
     7799**                     022000)

   C              Em         D
Wanna get lost...

   C              Em         D


   C              Em     D       G



Bass:

G|-----------------------------------------------|
D|-----------------------------------------------|
A|--3-3---7---5---3-3---7---5---3-3---7---5------|
E|--------------------------------------------3--|
     C   Em   D    C   Em   D    C   Em   D   G

the second half of the chorus is the same chords as the verse.

*Bridge:*
(play open chords on one guitar)

   D                 C                   G **
The only thing that ever made sense to me...

   D                 C                   G **


   D                 C                   G **


   B                             C
...The sound of my little girl laughing

                     G   (2nd guitar comes in here)
Laughing happy on a summer night

   G  (solo over)


parts marked ** play this riff (like the intro)

e|---------|
B|---------|
G|---------|
D|-------0-|
A|----0h2--|
E|-3-3-----|

Bass:

G|------------------------------|
D|------------------------------|
A|--5--3------5--3------5--3----|
E|--------3---------3---------3-|
    D  C  G   D  C  G   D  C  G

G|-----------------------------------|
D|-----------------------------------|
A|-22222222-33333333-----------------|
E|-------------------3333333-3333333-|
      B        C            G
     
Добавлено: 13.06.2013
Другие материалы по этой песне:
  • Аккорды и текст

Страница создана 13.06.2013
http://primanota.ru/everclear/song-from-an-american-movie-pt2-chords.htm
Привет, Гость.
Предлагаем пройти революционный курс по гитаре.
Подарок от PrimaNota.Ru, забирай!