PrimaNota.ru - самый крупный в мире бесплатный архив песенных текстов, аккордов, табулатур и нот


Everclear - Hater - текст песни, таба, видео

Регистрация Запомнить меня
Войти через:  Facebook Google Twitter Vk Yandex Mail.ru

Everclear - Hater - текст песни, таба, видео

Печатать
Просмотров: 79
Авторы музыки: Art Alexakis
Авторы текста: Art Alexakis
song: hater
band: everclear
album: welcome to the drama club
tab by: you probably don't care

\ = slide down
/ - slide up
0:14
e|--------------------------------------------------------|g
b|--------------------------------------------------------|u
g|--------------------------------------------------------|i
d|-5-5-5-----5-5-5-----5-5-5-----5-5-5--------------------|t
a|-5-5-5-----5-5-5-----5-5-5-----5-5-5--------------------|a
e|-3-3-3-----3-3-3-----3-3-3-----3-3-3--------------------|r
0:21
e|----------------------------------------------------------|g
b|----------------------------------------------------------|u
g|---------------------5-5-5---5/7-7-7---7\-----------------|i
d|-5-5-5-----5-5-5-----5-5-5---5/7-7-7---7\-----------------|t
a|-5-5-5-----5-5-5-----3-3-3---3/5-5-5---5\-----------------|a
e|-3-3-3-----3-3-3--------------------------------------|r--| x2
0:37
e|--------------------------------------------------------|g
b|--------------------------------------------------------|u
g|---------------------5-5-5-----7-7-7---7\---------------|i
d|-5-5-5-----5-5-5-----5-5-5-----7-7-7---7\---------------|t
a|-5-5-5-----5-5-5-----3-3-3-----5-5-5---5\---------------|a
e|-3-3-3-----3-3-3----------------------------------------|r
0:45
e|--------------------------------------------------------|g
b|--------------------------------------------------------|u
g|---------------------5-5-5-----7-7-7---7/---------------|i
d|-5-5-5-----5-5-5-----5-5-5-----7-7-7---7/---------------|t
a|-5-5-5-----5-5-5-----3-3-3-----5-5-5---5/---------------|a
e|-3-3-3-----3-3-3----------------------------------------|r
0:52
e|--------------------------------------------------------|g
b|--------------------------------------------------------|u
g|-9-9-9---9\4-4-4---4/5-5-5---5/7-7-7---7/---------------|i
d|-9-9-9---9\4-4-4---4/5-5-5---5/7-7-7---7/---------------|t
a|-7-7-7---7\2-2-2---2/3-3-3---3/5-5-5---5/---------------|a
e|--------------------------------------------------------|r
1:00
e|--------------------------------------------------------|g
b|--------------------------------------------------------|u
g|-9-9-9---9\4-4-4---4/5-5-5-5-5-5-5-5-7-7-7-7-7-7-7-7----|i
d|-9-9-9---9\4-4-4---4/5-5-5-5-5-5-5-5-7-7-7-7-7-7-7-7----|t
a|-7-7-7---7\2-2-2---2/3-3-3-3-3-3-3-3-5-5-5-5-5-5-5-5----|a
e|--------------------------------------------------------|r
1:08
e|----------------------------------------------------------|g
b|----------------------------------------------------------|u
g|---------------------5-5-5-----7-7-7----------------------|i
d|-5-5-5-----5-5-5-----5-5-5-----7-7-7----------------------|t
a|-5-5-5-----5-5-5-----3-3-3-----5-5-5----------------------|a
e|-3-3-3-----3-3-3--------------------------------------|r--| x6
1:54
e|--------------------------------------------------------|g
b|--------------------------------------------------------|u
g|-9-9-9---9\4-4-4---4/5-5-5---5/7-7-7---7/---------------|i
d|-9-9-9---9\4-4-4---4/5-5-5---5/7-7-7---7/---------------|t
a|-7-7-7---7\2-2-2---2/3-3-3---3/5-5-5---5/---------------|a
e|--------------------------------------------------------|r
2:02
e|--------------------------------------------------------|g
b|--------------------------------------------------------|u
g|-9-9-9---9\4-4-4---4/5-5-5-5-5-5-5-5-7-7-7-7-7-7-7-7----|i
d|-9-9-9---9\4-4-4---4/5-5-5-5-5-5-5-5-7-7-7-7-7-7-7-7----|t
a|-7-7-7---7\2-2-2---2/3-3-3-3-3-3-3-3-5-5-5-5-5-5-5-5----|a
e|--------------------------------------------------------|r
2:09
e|----------------------------------------------------------|g
b|----------------------------------------------------------|u
g|-----------7-7-7-----5-5-5-----7-7-7----------------------|i
d|-5-5-5-----7-7-7-----5-5-5-----7-7-7----------------------|t
a|-5-5-5-----5-5-5-----3-3-3-----5-5-5----------------------|a
e|-3-3-3------------------------------------------------|r--| x2
2:25
e|--------------------------------------------------------|g
b|--------------------------------------------------------|u
g|-----------------7-7-7-7-7-7-7-7------------------------|i
d|-5-5-5-5-5-5-5-5-7-7-7-7-7-7-7-7------------------------|t
a|-5-5-5-5-5-5-5-5-5-5-5-5-5-5-5-5------------------------|a
e|-3-3-3-3-3-3-3-3----------------------------------------|r
2:29
e|--------------------------------------------------------|g
b|--------------------------------------------------------|u
g|-9-9-9-9-9-9-9-9-5-5-5-5-5-5-5-5------------------------|i
d|-9-9-9-9-9-9-9-9-5-5-5-5-5-5-5-5------------------------|t
a|-7-7-7-7-7-7-7-7-3-3-3-3-3-3-3-3------------------------|a
e|--------------------------------------------------------|r
2:33
e|--------------------------------------------------------|g
b|--------------------------------------------------------|u
g|-----------------7-7-7-7-7-7-7-7------------------------|i
d|-5-5-5-5-5-5-5-5-7-7-7-7-7-7-7-7------------------------|t
a|-5-5-5-5-5-5-5-5-5-5-5-5-5-5-5-5------------------------|a
e|-3-3-3-3-3-3-3-3----------------------------------------|r
2:37
e|--------------------------------------------------------|g
b|--------------------------------------------------------|u
g|-9-9-9-9-9-9-9-9-5-5-5-5-5-5-5-5------------------------|i
d|-9-9-9-9-9-9-9-9-5-5-5-5-5-5-5-5------------------------|t
a|-7-7-7-7-7-7-7-7-3-3-3-3-3-3-3-3------------------------|a
e|--------------------------------------------------------|r
2:40
e|--------------------------------------------------------|g
b|--------------------------------------------------------|u
g|--------------------------------------------------------|i
d|-5-5-5-----5-5-5-----5-5-5-----5-5-5--------------------|t
a|-5-5-5-----5-5-5-----5-5-5-----5-5-5--------------------|a
e|-3-3-3-----3-3-3-----3-3-3-----3-3-3--------------------|r
2:48
e|-------------------------------------------------------------------|g
b|-------------------------------------------------------------------|u
g|-9-9-9-9-9-9-9-9-4-4-4-4-4-4-4-4-5-5-5-5-5-5-5-5-7-7-7-7-7-7-7-7---|i
d|-9-9-9-9-9-9-9-9-4-4-4-4-4-4-4-4-5-5-5-5-5-5-5-5-7-7-7-7-7-7-7-7---|t
a|-7-7-7-7-7-7-7-7-2-2-2-2-2-2-2-2-3-3-3-3-3-3-3-3-5-5-5-5-5-5-5-5---|a
e|-------------------------------------------------------------------|r
3:03
e|-------------------------------------------------------------------|g
b|-------------------------------------------------------------------|u
g|-9-9-9-9-9-9-9-9-4-4-4-4-4-4-4-4-5-5-5-5-5-5-5-5-7-------------7---||i
d|-9-9-9-9-9-9-9-9-4-4-4-4-4-4-4-4-5-5-5-5-5-5-5-5-7-------------7---||t
a|-7-7-7-7-7-7-7-7-2-2-2-2-2-2-2-2-3-3-3-3-3-3-3-3-5-------------5---||a
e|-------------------------------------------------------------------|r
3:11
e|-------------------------------------------------------------------|g
b|-------------------------------------------------------------------|u
g|-9-9-9-9-9-9-9-9-4-4-4-4-4-4-4-4-5-5-5-5-5-5-5-5-7-7-7-7-7-7-7-7---|i
d|-9-9-9-9-9-9-9-9-4-4-4-4-4-4-4-4-5-5-5-5-5-5-5-5-7-7-7-7-7-7-7-7---|t
a|-7-7-7-7-7-7-7-7-2-2-2-2-2-2-2-2-3-3-3-3-3-3-3-3-5-5-5-5-5-5-5-5---|a
e|-------------------------------------------------------------------|r
3:19
e|-------------------------------------------------------------------|g
b|-------------------------------------------------------------------|u
g|-9-9-9-9-9-9-9-9-4-4-4-4-4-4-4-4-5-5-5-5-5-5-5-5-7-------------7---|i
d|-9-9-9-9-9-9-9-9-4-4-4-4-4-4-4-4-5-5-5-5-5-5-5-5-7-------------7---|t
a|-7-7-7-7-7-7-7-7-2-2-2-2-2-2-2-2-3-3-3-3-3-3-3-3-5-------------5---|a
e|-------------------------------------------------------------------|r
3:26
e|---------------------------------------------------------------------|g
b|---------------------------------------------------------------------|u
g|-----------7-7-7-----9-9-9-----5-5-5---------------------------------|i
d|-5-5-5-----7-7-7-----9-9-9-----5-5-5---------------------------------|t
a|-5-5-5-----5-5-5-----7-7-7-----3-3-3---------------------------------|a
e|-3-3-3-----------------------------------------------------------|r--| x4
3:57
e|-------------------------------------------------------------------|g
b|-----------------------------------------3-------------------------|u
g|-----------------------------------------4-------------------------|i
d|-5-5-5-----5-5-5-----5-5-5-----5-5-5-----5-------------------------|t
a|-5-5-5-----5-5-5-----5-5-5-----5-5-5-----5-------------------------|a
e|-3-3-3-----3-3-3-----3-3-3-----3-3-3-----3-------------------------|r

if you have any corrections, fix it yourself, because i really don't care. this took me 
enough and i only did this because there wasn't already a hater tab.
Добавлено: 19.07.2013
Другие материалы по этой песне:
  • Аккорды и текст

Страница создана 24.05.2012
http://primanota.ru/everclear/hater-chords.htm
Привет, Гость.
Предлагаем пройти революционный курс по гитаре.
Подарок от PrimaNota.Ru, забирай!