PrimaNota.ru - самый крупный в мире бесплатный архив песенных текстов, аккордов, табулатур и нот


Everclear - Broken - текст песни, таба, видео

Регистрация Запомнить меня
Войти через:  Facebook Google Twitter Vk Yandex Mail.ru

Everclear - Broken - текст песни, таба, видео

Печатать
Просмотров: 100
Авторы музыки: Art Alexakis
Авторы текста: Art Alexakis
Author/Artist: Everclear
Title: Broken

P Pluck

Standard Tuning

---------|------------------|--|----------------------------------------------|
---------|-----1------------|--|----------------------------------------------|
---------|-3-------5----0---|--|----------------------------------------------|
---------|-3---3---3----3---|--|----------------------------------------------|
---------|------------------|--|----------------------------------------------|
---------|------------------|--|----------------------------------------------|
    Intro  P   P   P    P

---------|--------------1------------1---|--|---------------------------------|
---------|--------------1--1------1--1---|--|---------------------------------|
---------|-----------------0------0------|--|---------------------------------|
---------|------------3---------3--------|--|---------------------------------|
---------|----------1---------3----------|--|---------------------------------|
---------|-3--4--5-----------------------|--|---------------------------------|
          Verse         P  P      P  P

---------|----------------------------------------|---------------------------|
---------|----------------6---------6----------6--|---------------------------|
---------|--------------5----5--------5------5----|---------------------------|
---------|------------8-----------5--------5------|---------------------------|
---------|----------8-----------6--------3--------|---------------------------|
---------|-3--4--5--------------------------------|---------------------------|
          Verse Out

---------|-x---x----|--|------------------------------------------------------|
---------|-6---6----|--|------------------------------------------------------|
---------|-5---5----|--|------------------------------------------------------|
---------|-5---3----|--|------------------------------------------------------|
---------|----------|--|------------------------------------------------------|
---------|----------|--|------------------------------------------------------|
  Chorus "...Love" Pick Chords

---------|-x-x-x--x-x---x--x---|--|-------------------------------------------|
---------|-6-6-6--3-3/6-6--6---|--|-------------------------------------------|
---------|-7-7-7--5-5/7-7--7---|--|-------------------------------------------|
---------|---------------------|--|-------------------------------------------|
---------|---------------------|--|-------------------------------------------|
---------|---------------------|--|-------------------------------------------|
          Interlude/Bridge          End Song w/ Verse Riff
Добавлено: 04.08.2013
Другие материалы по этой песне:
  • Аккорды и текст

Страница создана 04.08.2013
http://primanota.ru/everclear/broken-chords.htm
Привет, Гость.
Предлагаем пройти революционный курс по гитаре.
Подарок от PrimaNota.Ru, забирай!