PrimaNota.ru - самый крупный в мире бесплатный архив песенных текстов, аккордов, табулатур и нот


Even - End To End - таба, видео

Регистрация Запомнить меня
Войти через:  Facebook Google Twitter Vk Yandex Mail.ru

Even - End To End - таба, видео

Печатать
Просмотров: 31
Авторы музыки: Ashley Naylor

End to End - Even

Tabbed: Jucko

Tuning: Standard

Intro/Verse 

  E           G5           Em A     D5 E+ E  
|---------------------------------------------------------|
|---------------------------------------------------------|
|-1--1-1-1--1-----------------6-6---7--5--1---1-1---1-1-1-|
|-2--2-2-2--2-5-5--5-5--5-5-5-7-7---7--6--2---2-2---2-2-2-|
|-2--2-2-2--2-5-5--5-5--5-5-5-7-7---5--7--2---2-2---2-2-2-|
|-0--0-0-0--0-3-3--3-3--3-3-0-5-5---x--x--0---0-0---0-0-0-|

  E           G5              A     D5 E+ Dsus2  
|-----------------------------------------0---------------|
|-----------------------------------------3---------------|
|-1--1-1-1--1-----------------6-6---7--5--2-----2---1h2-1-|
|-2--2-2-2--2-5-5--5-5--5-5-5-7-7---7--6--0---0---0-------|
|-2--2-2-2--2-5-5--5-5--5-5-5-7-7---5--7------------------|
|-0--0-0-0--0-3-3--3-3--3-3-0-5-5---x--x------------------|

Chorus
  Bm           Dm            Bm           Dm       Dsus2
|---------0----1--1-1-1-0------------0----1--1-1-1-0---|
|-------3---3--3----------2--------3---3--3----------2-|
|-----4--------2-----------------4--------2------------|
|---4----------0---------------4----------0------------|
|-2--------------------------2-------------------------|
|------------------------------------------------------|
  Bm4          Dm            F#7 
|---------0----1--1-1-1-0------------------------------|
|-------3---3--3----------2----------------------------|
|-----4--------2------------------------------7--------|
|---4----------0----------------2-----2-----8----------|
|-2---------------------------4-----4---4/9------------|
|---------------------------2--------------------------|

Intro 

E  G5 A D5 E+ E  

E  G5 A D5 E+ Dsus2  

Verse

    E                  G5
You found the light of love
    A      D5 E+  E    
You went into the air above
    E               G5
You wasted all your time
A      D5 E+  Dsus2    
Has it wasted you

    E                  G5
You found the light of love
    A      D5 E+  E    
You went into the air above
    E               G5
You wasted all your time
A      D5 E+  Dsus2    
Has it wasted you

Chorus

    Bm4                 Dm    
Now nothings ever gonna be the same
       Bm4                  Dm    
You're putting it out know ones to blame
    Bm4                Dm           F#7
No nothings ever gonna be the same again

Verse 

    E                    G5 
Do you think that it was you
    A        D5 E+       E    
You fell for things that others do
    E                   G5 
You must have lost your way
A   D5 E+   Dsus2    
Has it lost you

    E                    G5 
Do you think that it was me
    A      D5  E+       E    
You didn't see what the others see
    E                   G5 
You must have lost your mind
A   D5 E+   Dsus2    
Has it lost you

Chorus

   Bm4                 Dm    
No nothings ever gonna be the same
         Bm4                Dm    
There's  no one to judge no ones to blame
   Bm4                 Dm           F#7
No nothings ever gonna be the same again

   Bm4                 Dm    
No nothings ever gonna be the same
       Bm4                 Dm     
You're putting it out know ones to blame
   Bm4                 Dm           F#7
No nothings ever gonna be the same again

Bridge

B5   D5  E5 
Wooo hoo ooo

B5   D5  E 
Woo hoo ooo

B5   D5  E5 
Woo hoo ooo

D A x 2

G5            A5                  
Wont somebody please make up their mind

Solo (chorus chords x2)

Outro

E                       G
You must have lost your mind
A           E 
Has it lost you
Добавлено: 17.11.2015
Вам также может быть интересно:
Другие материалы по этой песне:
  • Аккорды и текст

Страница создана 17.11.2015
http://primanota.ru/even/end-to-end-chords.htm
Привет, Гость.
Предлагаем пройти революционный курс по гитаре.
Подарок от PrimaNota.Ru, забирай!