PrimaNota.ru - самый крупный в мире бесплатный архив песенных текстов, аккордов, табулатур и нот


Eve 6 - Without You Here - текст песни, таба, бас-таба, видео

Регистрация Запомнить меня
Войти через:  Facebook Google Twitter Vk Yandex Mail.ru

Eve 6 - Without You Here - текст песни, таба, бас-таба, видео

Печатать
Просмотров: 194
Artist-Eve6
Album-Its all in your head
Song-Without you here
Tuning-Standard E-A-D-G-B-e

Key:
~=let vibrate
.=Mute
/=slide down or up

Intro

e|--------------------------------------------------------------------------|
B|-------7---------5-----------4~-------------------------------------------|
G|---------8---------6-------4----------------------------------------------|
D|-----8---------6---------4------------------------------------------------|
A|---6---------4---------2--------------------------------------------------|
E|--------------------------------------------------------------------------|

Intro Part 2/ Beginning of Verse 1: Not sure about the #s strums for each chord

e|--------------------------------------------------------------------------|
B|--------------------------------------------------------------------------|
G|-------------------------666666666666--44444444444------------------------|
D|---44444444444444444444--666666666666--44444444444------------------------|
A|---44444444444444444444--444444444444--22222222222------------------------|
E|---22222222222222222222---------------------------------------------------|
    ....................  ............  ...........

Verse Part 2

e|--------------------------------------------------------------------------|
B|--------------------------------------------------------------------------|
G|-------------------------666666666666--44444444444------------------------|
D|---44444444444444444444--666666666666--44444444444------------------------|
A|---44444444444444444444--444444444444--22222222222------------------------|
E|---22222222222222222222---------------------------------------------------|

Fill thingy: dont no wat to call it since its only played once lol

e|--------------------------------------------------------------------------|
B|--------------------------------------------------------------------------|
G|--------------------------------------------------------------------------|
D|---4-4-4-4/-2-2-2-2-2-2---------------------------------------------------|
A|---4-4-4-4/-2-2-2-2-2-2---------------------------------------------------|
E|---2-2-2-2/-0-0-0-0-0-0---------------------------------------------------|
  "As I wave your eastbound plane away..."

Chorus 

e|--------------------------------------------------------------------------|
B|--------------------------------------------------------------------------|
G|-----------------666666666666--4/3--4-3--4~-------------------------------|
D|--444444444444---666666666666--x-x--x-x--x--------------------------------|
A|--444444444444---444444444444--2/1--2/1--2~-------------------------------|
E|--222222222222------------------------------------------------------------|


e|-------------------------------------------------------------------------|
B|-------------------------------------------------------------------------|
G|---------------666666666666--8//6//4~------------------------------------|
D|-444444444444--666666666666--x--x--x-------------------------------------|
A|-444444444444--444444444444--6//4//2~------------------------------------|
E|-222222222222------------------------------------------------------------|

Outro:

e|-------------------------------------------------------------------------|
B|-------------------------------------------------------------------------|
G|---------------666666666666--8//6//4~------------------------------------|
D|-444444444444--666666666666--x--x--x-------------------------------------|
A|-444444444444--444444444444--6//4//2~------------------------------------|
E|-222222222222------------------------------------------------------------|

e|-------------------------------------------------------------------------|
B|-------------------------------------------------------------------------|
G|---------------666666666666--8//6//4//6-6~-------------------------------|
D|-444444444444--666666666666--x--x--x--x-x--------------------------------|
A|-444444444444--444444444444--6//4//2//4-4~-------------------------------|
E|-222222222222------------------------------------------------------------|

End on this:

e|---------------|
B|---------------|
G|---------------|
D|------4~-------|
A|------4~-------|
E|------2~-------|

Lyrics:
I quit lookin at the clock,
it will only bring me down and it wont bring you here.
If I pulled out all the stops and a little less in my hair,
could I bring you here is my favorite white bic light, 
it can undark every night and keep it with you close 
as I wave your eastbound plane away

Too scared to play my eyes are too dilated to see without you here I feel my fear [x2]
without you here I feel my fear

I don't wanna rock, I wanna roll on top,
if you and I let go with me to second street and main as we turn around for praise,
I miss your pretty face

Too scared to play my eyes are too dilated to see without you here I feel my fear [x2]
without you here I feel my fear
Добавлено: 31.07.2012
Другие материалы по этой песне:
  • Аккорды и текст

Страница создана 15.03.2012
http://primanota.ru/eve-6/without-you-here-chords.htm
Привет, Гость.
Предлагаем пройти революционный курс по гитаре.
Подарок от PrimaNota.Ru, забирай!