PrimaNota.ru - самый крупный в мире бесплатный архив песенных текстов, аккордов, табулатур и нот


Eve 6 - Rescue - текст песни, таба, видео

Регистрация Запомнить меня
Войти через:  Facebook Google Twitter Vk Yandex Mail.ru

Eve 6 - Rescue - текст песни, таба, видео

Печатать
Просмотров: 160
Author/Artist: Eve6
Title: Rescue
Album: Horrorscope
Transcribed by: Max
Email: max4431@hotmail.com

------5---5---5---7-----5---5---5---5-----------------------------------------
----5---5---5---5-----5---5---5---5---5---------------------------------------
--9-----------------9---------------------------------------------------------
------------------------------------------------------------------------------
------------------------------------------------------------------------------
------------------------------------------------------------------------------
 Intro - stretch this out so it goes with the music                           

------------------------------------------------------------------------------
------------------------------------------------------------------------------
------------------------------------------------------------------------------
-2-2-2-2-x-x-5-5--------------------------------------------------------------
-2-2-2-2-x-x-5-5--------------------------------------------------------------
-0-0-0-0-x-x-3-3--------------------------------------------------------------
 verse - this is the way to play it without a keyboard                        

---0-----0-----0-----0--------------------------------------------------------
-0---0-3---3/5---5/8---8------------------------------------------------------
--------------------------7-7-x-7-7-------------------------------------------
--------------------------7-7-x-7-7-------------------------------------------
------------------------------------------------------------------------------
------------------------------------------------------------------------------
 riff leading into chorus                                                     

------------------------------------------------------------------------------
---------------------------------------------3-3-3-3--------------------------
-------2---2--2--2------------------4-4-4-4--2-2-2-2--------------------------
-------2---2--2--2----2--2---2---2--4-4-4-4--0-0-0-0--------------------------
-------0---0--0--0----2--2---2---2--2-2-2-2-----------------------------------
----------------------0--0---0---0--------------------------------------------
 Chorus "Like Jessica Rabbit she collects bad habits. .                       

------------------------------------------------------------------------------
--14v---12v---14v---10v-------------------------------------------------------
------------------------------------------------------------------------------
------------------------------------------------------------------------------
------------------------------------------------------------------------------
------------------------------------------------------------------------------
 riff leading into interlude                                                  

--------------------------------------------------------|---------------------
-------------------------------------------3-3--3--3----|---------------------
-----------2--2---2---2-----------4--4--4--2-2--2--2----|---------------------
-----------2--2---2---2--2--2--2--4--4--4--0-0--0--0----|---------------------
-----------0--0---0---0--2--2--2--2--2--2---------------|---------------------
-------------------------0--0--0------------------------|---------------------
  yea yea well i kind of sort of saw the sirens coming..                      

------------------------------------------------------------------------------
------------------------3-3-3-3-----------------------------------------------
---------------4-4-4-4--2-2-2-2----7-7-x-7-7----------------------------------
---------------4-4-4-4--0-0-0-0----7-7-x-7-7----------------------------------
---------------2-2-2-2--------------------------------------------------------
------------------------------------------------------------------------------
 and her lips pressed against mine..   into chorus..                          

Добавлено: 29.03.2012
Другие материалы по этой песне:
  • Аккорды и текст

Страница создана 25.02.2012
http://primanota.ru/eve-6/rescue-chords.htm
Привет, Гость.
Предлагаем пройти революционный курс по гитаре.
Подарок от PrimaNota.Ru, забирай!