PrimaNota.ru - самый крупный в мире бесплатный архив песенных текстов, аккордов, табулатур и нот


Eve 6 - Pick Up The Pieces - таба, видео

Регистрация Запомнить меня
Войти через:  Facebook Google Twitter Vk Yandex Mail.ru

Eve 6 - Pick Up The Pieces - таба, видео

Печатать
Просмотров: 204
Уроки эстрадного вокала в Санкт-Петербурге
Song:		"PICK UP THE PIECES"
Artist:		The Sugi Tap/Eve 6
Album:		The Sugi Tap EP

Tabbed by:	Dean (plastic.dwarf.warlord@gmail.com)

One of my first, so please comment and rate


Tuning: 	Standard 
		(E A D G B e)

NOTES----------------------------------------------------------------------
| I included two guitars since it has two on the EP version [I think].
| You can play with one guitar like Matt/Max does, just keep the rhythmn
| guitar until the guitar 1 leads show up and you can play the rhythmn
| for the chorus. [Live Max plays the lead notes on the bass and Matt
| plays rhythmn.]
|
| Strum patterns for guitar 2 are not exact, just the basic idea.
| 
| The lead on the verse/pt2: 
|    listen for timing
| On the lead riffs:
|    The octave riffs don't sound like they're included on the outro 
|    when this is played live, so do what you want.
|
+--------------------------------------------------------------------------




INTRO:

Guitar 1   d  d u d u d		  d  d u d d d
e|-----1~--------------------1~--------------1---|
B|---3-----3--3-3-3-3-3----3------1--1-1-1-3-----|
G|-----------------------------------------------|
D|-3---------------------3-----------------------|
A|-----------------------------------------------|
E|-----------------------------------------------|

Guitar 2
e|---------------------------------------------------------------------------|
B|-333-333-333-333--333-333--333-33-33-3--333-333-333-333--333-333-333-333---|
G|-333-333-333-333--333-333--333-33-33-3--333-333-333-333--333-333-333-333---|
D|-111-111-111-111--XXX-XXX--XXX-XX-00h1--111-111-111-111--XXX-XXX-XXX-XXX---|
A|------------------111-111--333-33------------------------333-333-333-333---|
E|---------------------------------------------------------------------------|




VERSE 1/PT1:			("Your mother saved your medals")

Guitar 2
e|---------------------------------------------------------------------------|
B|-333-333-333-333--333-333--333-33-33-3--333-333-333-333--333-333-333-333---|
G|-333-333-333-333--333-333--333-33-33-3--333-333-333-333--333-333-333-333---|2x
D|-111-111-111-111--XXX-XXX--XXX-XX-00h1--111-111-111-111--XXX-XXX-XXX-XXX---|
A|------------------111-111--333-33------------------------333-333-333-333---|
E|---------------------------------------------------------------------------|




VERSE/PT 2:			("She thinks about you often")

Guitar 1
e|-------------------1-----------------1----------------|
B|-333-3-1-----3-333---333-3-1---3-333----333-3-1-------|
G|-------------------------------------------------3~---|
D|------------------------------------------------------|
A|------------------------------------------------------|
E|------------------------------------------------------|

Guitar 2
e|---------------------------------------------------------------------------|
B|-333-333-333-333--333-333--333-33-33-3--333-333-333-333--333-333-333-333---|
G|-333-333-333-333--333-333--333-33-33-3--333-333-333-333--333-333-333-333---|2x
D|-111-111-111-111--XXX-XXX--XXX-XX-00h1--111-111-111-111--XXX-XXX-XXX-XXX---|
A|------------------111-111--333-33------------------------333-333-333-333---|
E|---------------------------------------------------------------------------|




PRE-CHORUS:

Guitar 1
e|-----------------------|
B|---------10------------|
G|------10---------------|
D|---10------------------|
A|-8---------------------|
E|-----------------------|

Guitar 2
e|-----------------------|
B|-333-333-333-333-------|
G|-333-333-333-333-------|
D|-XXX-XXX-XXX-XXX-------|
A|-333-333-333-333-------|
E|-----------------------|




CHORUS:				("With a hymn and a secret...")

Guitar 1
e|--------------------------------------|
B|--------------------------------------|
G|-10--101010-10-8--777-7-5--555--8-7---|2x
D|--X---X-X-X--X-X--XXX-X-X--XXX--X-X---|
A|--8---8-8-8--8-6--555-5-3--333--6-5---|
E|--------------------------------------|

Guitar 2
e|---------------------------------------------------------------------------|
B|-333-333-333-333--333-333--333-33-33-3--333-333-333-333--333-333-333-333---|
G|-333-333-333-333--333-333--333-33-33-3--333-333-333-333--333-333-333-333---|2x
D|-111-111-111-111--XXX-XXX--XXX-XX-00h1--111-111-111-111--XXX-XXX-XXX-XXX---|
A|------------------111-111--333-33------------------------333-333-333-333---|
E|---------------------------------------------------------------------------|




INTRO:

Guitar 1   d  d u d u d		  d  d u d d d
e|-----1~--------------------1~---------------------|
B|---3-----3--3-3-3-3-3----3------1--1-1-1--3-------|
G|---------------------------------------------3~---|
D|-3---------------------3--------------------------|
A|--------------------------------------------------|
E|--------------------------------------------------|

Guitar 2
e|---------------------------------------------------------------------------|
B|-333-333-333-333--333-333--333-33-33-3--333-333-333-333--333-333-333-333---|
G|-333-333-333-333--333-333--333-33-33-3--333-333-333-333--333-333-333-333---|
D|-111-111-111-111--XXX-XXX--XXX-XX-00h1--111-111-111-111--XXX-XXX-XXX-XXX---|
A|------------------111-111--333-33------------------------333-333-333-333---|
E|---------------------------------------------------------------------------|




VERSE 2/PT1:			("Blessed by your genetics...")

Guitar 2
e|---------------------------------------------------------------------------|
B|-333-333-333-333--333-333--333-33-33-3--333-333-333-333--333-333-333-333---|
G|-333-333-333-333--333-333--333-33-33-3--333-333-333-333--333-333-333-333---|2x
D|-111-111-111-111--XXX-XXX--XXX-XX-00h1--111-111-111-111--XXX-XXX-XXX-XXX---|
A|------------------111-111--333-33------------------------333-333-333-333---|
E|---------------------------------------------------------------------------|




VERSE 2/PT 2:			("Your malice is volcanic.")

Guitar 1
e|-------------------1--------------------------------|
B|-333-3-1-----3-333-------3--3-333-3----3----3-------|
G|-----------------------------------------------3~---|
D|-----------------------3-------------3--------------|
A|----------------------------------------------------|
E|----------------------------------------------------|

Guitar 2
e|---------------------------------------------------------------------------|
B|-333-333-333-333--333-333--333-33-33-3--333-333-333-333--333-333-333-333---|
G|-333-333-333-333--333-333--333-33-33-3--333-333-333-333--333-333-333-333---|2x
D|-111-111-111-111--XXX-XXX--XXX-XX-00h1--111-111-111-111--XXX-XXX-XXX-XXX---|
A|------------------111-111--333-33------------------------333-333-333-333---|
E|---------------------------------------------------------------------------|




PRE-CHORUS:

Guitar 1
e|-----------------------------|
B|------------------------10---|
G|------10-------10----10------|
D|---10-------10----10---------|
A|-8--------8------------------|
E|-----------------------------|

Guitar 2
e|-----------------------|
B|-333-333-333-333-------|
G|-333-333-333-333-------|
D|-XXX-XXX-XXX-XXX-------|
A|-333-333-333-333-------|
E|-----------------------|




FINAL CHORUS:				("With a hymn and a secret...")

Guitar 1
e|--------------------------------------|
B|--------------------------------------|
G|-10--101010-10-8--777-7-5--555--8-7---|4x
D|--X---X-X-X--X-X--XXX-X-X--XXX--X-X---|
A|--8---8-8-8--8-6--555-5-3--333--6-5---|
E|--------------------------------------|

Guitar 2
e|---------------------------------------------------------------------------|
B|-333-333-333-333--333-333--333-33-33-3--333-333-333-333--333-333-333-333---|
G|-333-333-333-333--333-333--333-33-33-3--333-333-333-333--333-333-333-333---|4x
D|-111-111-111-111--XXX-XXX--XXX-XX-00h1--111-111-111-111--XXX-XXX-XXX-XXX---|
A|------------------111-111--333-33------------------------333-333-333-333---|
E|---------------------------------------------------------------------------|




OUTRO:

Guitar 1 
e|-----1~--------------------1~----------------------|
B|---3---------------------3-------------------------|
G|---------101010-10-8-----------777-7-5--555--------|
D|-3--------X-X-X--X-X---3-------XXX-X-X--XXX--------|
A|----------8-8-8--8-6-----------555-5-3--333--6-5---|
E|---------------------------------------------------|

Guitar 2
e|---------------------------------------------------------------------------|
B|-333-333-333-333--333-333--333-33-33-3--333-333-333-333--333-333-333-333---|
G|-333-333-333-333--333-333--333-33-33-3--333-333-333-333--333-333-333-333---|2x
D|-111-111-111-111--XXX-XXX--XXX-XX-00h1--111-111-111-111--XXX-XXX-XXX-XXX---|
A|------------------111-111--333-33------------------------333-333-333-333---|
E|---------------------------------------------------------------------------|
Добавлено: 22.02.2012
Другие материалы по этой песне:
  • Аккорды и текст

Страница создана 22.02.2012
http://primanota.ru/eve-6/pick-up-the-pieces-chords.htm
Привет, Гость.
Предлагаем пройти революционный курс по гитаре.
Подарок от PrimaNota.Ru, забирай!