PrimaNota.ru - самый крупный в мире бесплатный архив песенных текстов, аккордов, табулатур и нот


Eve 6 - Not Gonna Be Alone Tonight - текст песни, таба, видео

Регистрация Запомнить меня
Войти через:  Facebook Google Twitter Vk Yandex Mail.ru

Eve 6 - Not Gonna Be Alone Tonight - текст песни, таба, видео

Печатать
Просмотров: 154
Song:		"NOT GONNA BE ALONE TONIGHT"
Artist:		Eve 6
Album:		It's All In Your Head

Tabbed by:	Dean (plastic.dwarf.warlord@gmail.com)


Tuning: 	Standard 
		(E A D G B e)

NOTES----------------------------------------------------------------------
| Distort at will...
|
+--------------------------------------------------------------------------



INTRO:
   C       G       D
e|-----------------------------------|
B|-----------------------------------|
G|-5-5-5-5---------7-7-7-7-7-7-7-7---|2x
D|-5-5-5-5-5-5-5-5-7-7-7-7-7-7-7-7---|
A|-3-3-3-3-5-5-5-5-5-5-5-5-5-5-5-5---|
E|---------3-3-3-3-------------------|



VERSE:

e|-----------------------------------|
B|-----------------------------------|
G|-5-5-5-5---------7-7-7-7-7-7-7-7---|4x
D|-5-5-5-5-5-5-5-5-7-7-7-7-7-7-7-7---|
A|-3-3-3-3-5-5-5-5-5-5-5-5-5-5-5-5---|
E|---------3-3-3-3-------------------|



PRE-CHORUS:

e|------------------------------|---------------------|
B|------------------------------|---------------------|
G|---------------------------3x-|-2-2-2-2-2-2-2-2~~~--|
D|-4~--2~--0~----5~--4~--2~-----|-2-2-2-2-2-2-2-2~~~--|
A|------------------------------|-0-0-0-0-0-0-0-0~~~--|
E|------------------------------|---------------------|
				PM* * * *


CHORUS:

e|-----------------------------------|
B|-----------------------------------|
G|-5-5-5-5---------7-7-7-7-7-7-7-7---|2x
D|-5-5-5-5-5-5-5-5-7-7-7-7-7-7-7-7---|
A|-3-3-3-3-5-5-5-5-5-5-5-5-5-5-5-5---|
E|---------3-3-3-3-------------------|



VERSE:

e|-----------------------------------|
B|-----------------------------------|
G|-5-5-5-5---------7-7-7-7-7-7-7-7---|4x
D|-5-5-5-5-5-5-5-5-7-7-7-7-7-7-7-7---|
A|-3-3-3-3-5-5-5-5-5-5-5-5-5-5-5-5---|
E|---------3-3-3-3-------------------|



PRE-CHORUS:

e|------------------------------|---------------------|
B|------------------------------|---------------------|
G|---------------------------3x-|-2-2-2-2-2-2-2-2~~~--|
D|-4~--2~--0~----5~--4~--2~-----|-2-2-2-2-2-2-2-2~~~--|
A|------------------------------|-0-0-0-0-0-0-0-0~~~--|
E|------------------------------|---------------------|
				PM* * * *



CHORUS:

e|-----------------------------------|
B|-----------------------------------|
G|-5-5-5-5---------7-7-7-7-7-7-7-7---|2x
D|-5-5-5-5-5-5-5-5-7-7-7-7-7-7-7-7---|
A|-3-3-3-3-5-5-5-5-5-5-5-5-5-5-5-5---|
E|---------3-3-3-3-------------------|



BRIDGE:

e|-----------------------------------|
B|-----------------------------------|
G|-5-5-5-5---------7-7-7-7-7-7-7-7---|4x
D|-5-5-5-5-5-5-5-5-7-7-7-7-7-7-7-7---|
A|-3-3-3-3-5-5-5-5-5-5-5-5-5-5-5-5---|
E|---------3-3-3-3-------------------|



PRE-CHORUS:

e|---------|---------------------|---------------------|
B|---------|---------------------|---------------------|
G|-7~~~~~--|---------------------|-2-2-2-2-2-2-2-2~~~--|
D|-x-------|-4~-2~-0~--5~-4~-2~--|-2-2-2-2-2-2-2-2~~~--|
A|-5~~~~~--|---------------------|-0-0-0-0-0-0-0-0~~~--|
E|---------|---------------------|---------------------|
				PM* * * *



CHORUS:

e|-----------------------------------|
B|-----------------------------------|
G|-5-5-5-5---------7-7-7-7-7-7-7-7---|4x
D|-5-5-5-5-5-5-5-5-7-7-7-7-7-7-7-7---|
A|-3-3-3-3-5-5-5-5-5-5-5-5-5-5-5-5---|
E|---------3-3-3-3-------------------|



OUTRO:

e|-----------------------------------|
B|-----------------------------------|
G|-5-5-5-5---------7-7-7-7-7-7-7-7---|2x
D|-5-5-5-5-5-5-5-5-7-7-7-7-7-7-7-7---|
A|-3-3-3-3-5-5-5-5-5-5-5-5-5-5-5-5---|
E|---------3-3-3-3-------------------|



End On:

e|---------------------------|
B|---------------------------|
G|-5~------7~----------------|
D|-5~--5~--7~----------------|
A|-3~--5~--5~----------------|
E|-----3~--------------------|
Добавлено: 26.06.2012
Другие материалы по этой песне:
  • Аккорды и текст

Страница создана 15.06.2012
http://primanota.ru/eve-6/not-gonna-be-alone-tonight-chords.htm
Привет, Гость.
Предлагаем пройти революционный курс по гитаре.
Подарок от PrimaNota.Ru, забирай!