PrimaNota.ru - самый крупный в мире бесплатный архив песенных текстов, аккордов, табулатур и нот


Eve 6 - Nocturnal - текст песни, таба, видео

Регистрация Запомнить меня
Войти через:  Facebook Google Twitter Vk Yandex Mail.ru

Eve 6 - Nocturnal - текст песни, таба, видео

Печатать
Просмотров: 137
Author/Artist: Eve 6
Title: Nocturnal
Album: Horrorscope
Transcribed by: Matt Foster
Email: nexthendrix806@hotmail.com

Hey have fun with this tab.  I'm trying to tab out the
whole Horrorscope album. I'm almost done.  Email me
any comments/corrections.
                        .

-5-4-5-5-5-5-5-5-5|-7-6-7-7-7-7-7-7-7-----------------------------------------
------------------|-----------------------------------------------------------
------------------|-----------------------------------------------------------
------------------|-----------------------------------------------------------
------------------|-----------------------------------------------------------
------------------|-----------------------------------------------------------
intro. play left side of bar 2x, right side 4x

---------------------------------|--------------------------------------------
---------------------------------|--------------------------------------------
-5-xxxxx-------------------------|-5-xxxxx-----------------5-5-7-5------------
-5-xxxxx-5-xxxxx-7-xxxxx-3-xxxxx-|-5-xxxxx-5-xxxxx-7-xxxxx-5-5-7-5------------
-3-xxxxx-5-xxxxx-7-xxxxx-3-xxxxx-|-3-xxxxx-5-xxxxx-7-xxxxx-3-3-5-3------------
---------3-xxxxx-5-xxxxx-1-xxxxx-|---------3-xxxxx-5-xxxxx--------------------
verse part 1 (2x).....now play:  verse part 2 (1x)...then part 1 (1x)

------------------------------------------------------------------------------
------------------------------------------------------------------------------
----------------------9-------------------------------------------------------
-xx-9-xx-9-xx-9-xx-9--9-------------------------------------------------------
-xx-9-xx-9-xx-9-xx-9--7-------------------------------------------------------
-xx-7-xx-7-xx-7-xx-7----------------------------------------------------------
2x

------------------------------------------------------------------------------
------------------------------------------------------------------------------
-5-------3--------5-------3--------5-5-5-5-7-7-9-xx-5-------------------------
-5-5-7-3-3-3-5-3--5-5-7-3-3-3-5--3-5-5-5-5-7-7-9-xx-5-5-7-7-3-3---------------
-3-5-7-3-1-3-5-3--3-5-7-3-1-3-5--3-3-3-3-3-5-5-7-xx-3-5-7-7-3-3---------------
---3-5-1---1-3-1----3-5-1---1-3--1--------------------3-5-5-1-1---------------
chorus 1x

--5-4-5|5-5-5-5-5-5-----------------------------------------------------------
-------|----------------------------------------------------------------------
-------|----------------------------------------------------------------------
-------|----------------------------------------------------------------------
-------|----------------------------------------------------------------------
-------|----------------------------------------------------------------------
4x     ..pm.......

------------------------------------------------------------------------------
------------------------------------------------------------------------------
------------------------------------------------------------------------------
-9////////--------------------------------------------------------------------
-9////////--------------------------------------------------------------------
-7////////--------------------------------------------------------------------
1x (this enters into the bass verse)

--------------------------------------------|------------|--------------------
----11-13-11--------11-13-11----11-13-13-11-|---11-13-11-|--------------------
-12----------12--12----------12-------------|12----------|--------------------
--------------------------------------------|------------|--------------------
--------------------------------------------|------------|--------------------
--------------------------------------------|------------|--------------------
1x up until bar (then play barred part 4x)

------------------------------------------------------------------------------
------------------------------------------------------------------------------
---------------------9--------------------------------------------------------
-xx-9-xx-9-xx-9-xx-9-9--------------------------------------------------------
-xx-9-xx-9-xx-9-xx-9-7--------------------------------------------------------
-xx-7-xx-7-xx-7-xx-7----------------------------------------------------------
2x

------------------------------------------------------------------------------
------------------------------------------------------------------------------
-5-------3--------5-------3------5-5-5-5-7-9-xx-5-----------------------------
-5-5-7-3-3-3-5-3--5-5-7-3-3-5--3-5-5-5-5-7-9-xx-5-5-7-7-3-3-------------------
-3-5-7-3-1-3-5-3--3-5-7-3-1-5--3-3-3-3-3-5-7-xx-3-5-7-7-3-3-------------------
---3-5-1---1-3-1----3-5-1---3--1------------------3-5-5-1-1-------------------
chorus 1x

-5-4-5|-5-5-5-5-5-5-----------------------------------------------------------
------|-----------------------------------------------------------------------
------|-----------------------------------------------------------------------
------|-----------------------------------------------------------------------
------|-----------------------------------------------------------------------
------|-----------------------------------------------------------------------
4x    ...pm.......

------------------------------------------------------------------------------
------------------------------------------------------------------------------
-5////------------------------------------------------------------------------
-5////------------------------------------------------------------------------
-3////------------------------------------------------------------------------
------------------------------------------------------------------------------
1x

------------|-----|-----------------------------------------------------------
------------|-----|-----------------------------------------------------------
------------|--9--|-----------------------------------------------------------
-7----------|--9--|-----------------------------------------------------------
-5-7-9-5----|--7--|-----------------------------------------------------------
---5-7-3----|-----|-----------------------------------------------------------
palm muted...mixed those chords around using up and downstrokes (listen CD)

-|---|---|-5-5-|--------------------------------------------------------------
-|---|---|-5-5-|--------------------------------------------------------------
-|-9-|---|-5-5-|--------------------------------------------------------------
-|-9-|---|-----|--------------------------------------------------------------
-|-7-|---|-----|--------------------------------------------------------------
-|---|---|-----|--------------------------------------------------------------
  14x      4x

------------------------------------------------------------------------------
------------------------------------------------------------------------------
-5-------3--------5-------3------5-5-5-5-7-9--5-------------------------------
-5-5-7-3-3-3-5-3--5-5-7-3-3-5--3-5-5-5-5-7-9--5-5-7-7-3-3---------------------
-3-5-7-3-1-3-5-3--3-5-7-3-1-5--3-3-3-3-3-5-7--3-5-7-7-3-3---------------------
---3-5-1---1-3-1----3-5-1---3--1----------------3-5-5-1-1---------------------
chorus 1x

-------5-4-5-|-5-5-5-5-5-5----------------------------------------------------
-------------|----------------------------------------------------------------
-------------|----------------------------------------------------------------
-------------|----------------------------------------------------------------
-------------|----------------------------------------------------------------
-------------|----------------------------------------------------------------
end 8x       ...pm.......
Добавлено: 15.05.2012
Другие материалы по этой песне:
  • Аккорды и текст

Страница создана 30.03.2012
http://primanota.ru/eve-6/nocturnal-chords.htm
Привет, Гость.
Предлагаем пройти революционный курс по гитаре.
Подарок от PrimaNota.Ru, забирай!