PrimaNota.ru - самый крупный в мире бесплатный архив песенных текстов, аккордов, табулатур и нот


Eve 6 - Friend Of Mine - текст песни, таба, видео

Регистрация Запомнить меня
Войти через:  Facebook Google Twitter Vk Yandex Mail.ru

Eve 6 - Friend Of Mine - текст песни, таба, видео

Печатать
Просмотров: 146
Please note: This is NOT my (PurelyCanadian) tab. I was looking for a tab of this song
Ultimate-Guitar and it wasn't here. So I searched Google and found this tab, I thought
add it. I take no credit what-so-ever in creating this tab. This tab was posted on 
and was written by Cory Wylie. I believe it sounds pretty good, so enjoy it. From
point on everything written was written by Cory:

----------------------------------

Normal Tuning. 100% correct
Tabber : Cory Wylie

Intro
(Clean)
e----------------------------------------------------------------------------------|
b----------------------------------------------------------------------------------|
G----------------------------------------------------------------------------------|
D-------4---------4----X 4 --------------------------------------------------------|
A--2---------------------------------------------------4---------2---------4-------|
E------------0-------------------------------------2---------0---------2-----------|

Fill 1
(Distortion)
e-------------------------------------------------------------------------------|
b----0-----0------0-------------------------------------------------------------|
G----4-----3b4----4----3--------X2----------------------------------------------|
D----------------------4--------------------------------------------------------|
A-------------------------------------------------------------------------------|
E-------------------------------------------------------------------------------|

Back to a little of the intro
(Distortion)						  Fill 2 (Distortion)
e------------------------------------------------ --------------------------------|
b------------------------------------------------ --------------------------------|
G------------------------------------------------ ---------------2----------------|
D--------4---------4-----x2 --------------------- ---4~--2~--4~--2--Various Times-|
A---2-------------------------------------------- ---4~--2~--4~--0----------------|
E-------------0---------------------------------- ---2~--0~--2~-------------------|

Chorus 1

e-------------------------------------------------------------------|
b-------------------------------------------------------------------|
G---4--4--4--4--44--------------------------------------------------|
D---4--4--4--4--44--4--4--4--4--44--2-2-2--1-2---1-2------x2--------|
A---2--2--2--2--22--4--4--4--4--44--2-2-2-----------0---------------|
E-------------------2--2--2--2--22--0-0-0------0--------------------|

3rd time on the chorus
e-------------------------------------------------------------------|
b-------------------------------------------------------------------|
G--4--4--4--4--44------------------------------4-4-4----------------|
D--4--4--4--4--44--4--4--4--4--44--2-2-2-2-----4-4-4--4-4--2~-------|
A--2--2--2--2--22--4--4--4--4--44--2-2-2-2-----2-2-2--4-4--2~-------|
E------------------2--2--2--2--22--0-0-0-0------------2-2--0~-------|

Fill 1

Fill 2

Fill 1

Fill 2

Chorus 1

Bridge
 					After each other these \\/ break for a couple of seconds
e------------------------------------------------------------------------------------|
b------------------------------------------------------------------------------------|
G---------------------9-9-9-9-9-9-9----------------------------99999-----------------|
D----9-9-9-9-9-9-9-9--9-9-9-9-9-9-9--x4--4---------------------99999-{Break}-x3------|
A----9-9-9-9-9-9-9-9--7-7-7-7-7-7-7------4-Various-Times-then--77777-----------------|
E----7-7-7-7-7-7-7-7---------------------2-------------------------------------------|

e---------------------------------------------------------------------|
b---------------------------------------------------------------------|
G--9-----------------4~--2~-------------------------------------------|
D--9-Various-times---4~--2~--2~--x3-then--2---------------------------|
A--7-----------------2~--0~--2~-----------2--Various-Times------------|
E----------------------------0~-----------0---------------------------|
					  P.M.
Chorus 2

e------------------------------------------------------------------------|
b------------------------------------------------------------------------|
G---4--4--4--4--44-------------------------------------------------------|
D---4--4--4--4--44--4--4--4--4--44--2-2-2-2-2-2-2-2--x3------------------|
A---2--2--2--2--22--4--4--4--4--44--2-2-2-2-2-2-2-2----------------------|
E-------------------2--2--2--2--22--0-0-0-0-0-0-0-0----------------------|

Outro

e------------------------------------------------------------------------------|
b------------------------------------------------------------------------------|
G----4--3----------------------------------------------------------------------|
D----4--4--0---4--6--2~--------------------------------------------------------|
A----2--2--0---4--6--2~--------------------------------------------------------|
E--------------2--4--0~--------------------------------------------------------|


Order
Intro
Fill 1
Little Part Of The Intro
Fill 2
Chorus 1
Fill 1
Fill 2
Fill 1
Fill 2
Chorus 1
Bridge
Chorus 2
Outro
Добавлено: 08.06.2012
Другие материалы по этой песне:
  • Аккорды и текст

Страница создана 25.05.2012
http://primanota.ru/eve-6/friend-of-mine-chords.htm
Привет, Гость.
Предлагаем пройти революционный курс по гитаре.
Подарок от PrimaNota.Ru, забирай!