PrimaNota.ru - самый крупный в мире бесплатный архив песенных текстов, аккордов, табулатур и нот


Eve 6 - Bring The Night On - текст песни, таба, видео

Регистрация Запомнить меня
Войти через:  Facebook Google Twitter Vk Yandex Mail.ru

Eve 6 - Bring The Night On - текст песни, таба, видео

Печатать
Просмотров: 189
Well heres Bring the Night On

i was playing around one day and figured out the intro, and the rest came easy


INTRO

|-----------------------------------------------------------------------|
|-----------------------------------------------------------------------|
|---11---9---11---9--7--9--7----12----11----11--------9--7--9--7--------|X4
|-9----9---9----9-------------------------------------------------------|
|----------------------------10----10----10-----10----------------------|
|-----------------------------------------------------------------------|
       		                                        
       
VERSE
       	
|------------------------------------------------------------------------|
|------------------------------------------------------------------------|
|--------11--------------11-----11-----------11-----------------9-9-7-9--|
|-9--9-9----9--9--9-9-9-----9-9------------------------------------------|
|----------------------------------10--10-10----10-10-7--7-7-7-----------|
|------------------------------------------------------------------------
| .......   ............    ....   ...........   ........................
       
|------------------------------------------------------------------------|
|------------------------------------------------------------------------|
|--------11--------------11----11----------11---------------7-h-9-p-7----|
|-9--9-9-----9--9--9-9-9---9-9---------------------------------------h-9-|
|---------------------------------10--10-10---10-10-7-7-7-7--------------|
|------------------------------------------------------------------------|
  .......    ............  ...    .........   ..............
       	
|------------------------------------------------------------------------|
|------------------------------------------------------------------------|
|--------11--------------11-----11-----------11---------------9--9--7--9-|
|-9--9-9-----9--9--9-9-9----9-9------------------------------------------|
|----------------------------------10--10-10----10-10-7-7-7-7------------|
|------------------------------------------------------------------------|
  .......     ...........    ....   .........    ........................            	
|------------------------------------------------------------------------|
|------------------------------------------------------------------------|
|--------11--------------11-----11-----------11----------9-9-9-9-9-9-9-9-|
|-9--9-9-----9--9--9-9-9----9-9--------------------------9-9-9-9-9-9-9-9-|
|----------------------------------10--10-10----10-10----7-7-7-7-7-7-7-7-|
|------------------------------------------------------------------------|
 .......     ...........    ...    .........    .....
      

CHORUS
      
|-------------------------------------------------------------------------|
|-------------------------------------------------------------------------|
|---------------7--h--9---11---11--h--9-----/12--12--11-11-11-------------|
|-------------------------------------------------------------------------|
|-------------------------------------------------------------------------|
|-------------------------------------------------------------------------|

THINGY

|-------------------------------------------------------------------------|
|-------------------------------------------------------------------------|
|-------------------------------------------------------------------------|
|--9-9-9-9-9-9-9-9---------7-7-7-7--------------x--x--12-x-x-x-12-----9\\-|
|--9-9-9-9-9-9-9-9---------7-7-7-7--------------x--x--12-x-x-x-12-----9\\-|
|--7-7-7-7-7-7-7-7---------5-5-5-5--------------x--x--10-x-x-x-10-----7\\-|

VERSE
|-------------------------------------------------------------------------|
|---11-------11-----11------9---------11------11--------------------------|
|--------9-------9-------------------------9------9-------9-9-9-9-9-9-9---|
|---------------------------------------------------------9-9-9-9-9-9-9---|
|---------------------------------------------------------7-7-7-7-7-7-7---|
|-------------------------------------------------------------------------|

|-------------------------------------------------------------------------|
|-------------------------------------------------------------------------|
|--------------------------------------------------11----9-9-9-9-9-9-9-9--|
|--------------------------------------------------11----9-9-9-9-9-9-9-9--|
|---------------------------------------------------9----7-7-7-7-7-7-7-7--|
|-------------------------------------------------------------------------|


(CHORUS)


THINGY

|------------------------------------------------------------------------|
|------------------------------------------------------------------------|
|------------------------------------------------------------------------|
|--9-9-9-9-9-9-9-9--------7-7-7-7------------12-12-12-12-----------------|
|--9-9-9-9-9-9-9-9--------7-7-7-7------------12-12-12-12-----------------|
|--7-7-7-7-7-7-7-7--------5-5-5-5------------10-10-10-10-----------------|

BRIDGE

|--------------------------------------------------------------------------|
|--------------------------------------------------------------------------|
|-11-9--11--9-7-9-7--12--11--12--11-9-11-9--11--9--11--9-7-9-7--12--11--12-|
|-9--9--9---9------------------------------9--9--9----9--------------------|
|-------------------10--10--10--10-----------------------------10--10--10--|
|--------------------------------------------------------------------------|

|-------------------------------------------------------------------|
|-------------------------------------------------------------------|
|-------9-9-9-------11-11-11-11-------7-7-7---------9-9-9-9---------|
|--7-7--------9-9-9--------------5-5--------7-7-7-------------------|
|--7-7--------9-9-9--------------5-5--------7-7-7-------------------|
|--5-5--------7-7-7--------------3-3--------5-5-5-------------------|
        	                                                   
|-------------------------------------------------------------------|
|-------------------------------------------------------------------|
|-------------------------------------------------------------------|X2
|--7-7-------9-9-9---------------5-5--------7-7-7-------------------|
|--7-7-------9-9-9---------------5-5--------7-7-7-------------------|
|--5-5-------7-7-7---------------3-3--------5-5-5-------------------|


        
|-------------------------------------------------------------------|
|-------------------------------------------------------------------|
|------7-7-7--------9-9-9-9------------7-7-7---------9-9-9-9--------|
|--5-5-------7-7-7----------------5-5----------7-7-7----------------|
|--5-5-------7-7-7----------------5-5----------7-7-7----------------|
|--3-3-------5-5-5----------------3-3----------5-5-5----------------|
                                                        
|-------------------------------------------------------------------|
|-------------------------------------------------------------------|
|-------------------------------------------------------------------|X2
|--5-5-------7-7-7----------------5-5----------7-7-7----------------|
|--5-5-------7-7-7----------------5-5----------7-7-7----------------|
|--3-3-------5-5-5----------------3-3----------5-5-5----------------|

|------------------------------------------------------------------|
|------------------------------------------------------------------|
|------7-7-7-------9-9-9-9------------7-7-7------------9-9-9-9-----|
|--7-7-------9-9-9---------------5-5-----------7-7-7---------------|
|--7-7-------9-9-9---------------5-5-----------7-7-7---------------|
|--5-5-------7-7-7---------------3-3-----------5-5-5---------------|
       
|------------------------------------------------------------------|
|------------------------------------------------------------------|
|------------------------------------------------------------------|
|--7-7-------9-9-9---------------5-5-----------7-7-7---------------|
|--7-7-------9-9-9---------------5-5-----------7-7-7---------------|
|--5-5-------7-7-7---------------3-3-----------5-5-5---------------|
	

|------------------------------------------------------------------|
|------------------------------------------------------------------|
|-----------------------------------------------9------------------|
|------9~~~-------------------------------------x------------------|
|------9~~~--- (w/ whammy bar)------------------7------------------|
|------7~~~--------------------------------------------------------|
	
|------------------------------------------------------------------|
|------------------------------------------------------------------|
|---11-/\\/\\/\\/\\/\\/\\/\\/\\/\\/\\/\\/\\/\\/\\/\\/\\/\\/\\/\\---|
|------------------------------------------------------------------|
|------------------------------------------------------------------|
|------------------------------------------------------------------|


(CHORUS)



|-------------------------------------------------------------------|
|-------------------------------------------------------------------|
|------11----9----11----9--7-^-------12----11----12----11--9-^------|
|--9------9----9-----9----------------------------------------------|
|---------------------------------10----10----10----10--------------|      
|-------------------------------------------------------------------|
        	                                      

OUTRO

|----------------------------------------------------------|
|----------------------------------------------------------|
|11-11-11-11-9-9-9-11-11-11-11-119-9-9-9-12-12-12-12-9-9-9-|                
|----------------------------------------------------------|
|----------------------------------------------------------|
|----------------------------------------------------------|

	
|-------------------------------------------------------------------------|
|-------------------------------------------------------------------------|
|-12-12-12-12-11-11-9-9-11-11-11-11-9-9-9-11-11-11-11-12-12-12-12-11-11-9-|
|-------------------------------------------------------------------------|
|-------------------------------------------------------------------------|
|-------------------------------------------------------------------------|
       	
|-------------------------------------7-7-7-7-------------------|
|-------------------------------------5-5-5-5-------------------|
|---------------------------------------------------------------|
|----2--2-----2--2-----2--2-----2--2----------------------------|
|----2--2-----2--2-----2--2-----2--2----------------------------|
|----0--0-----0--0-----0--0-----0--0----------------------------|
     ....     ....     ....     ....



ENJOY!!!!
        
Добавлено: 25.07.2012
Другие материалы по этой песне:
  • Аккорды и текст

Страница создана 25.07.2012
http://primanota.ru/eve-6/bring-the-night-on-chords.htm
Привет, Гость.
Предлагаем пройти революционный курс по гитаре.
Подарок от PrimaNota.Ru, забирай!