PrimaNota.ru - самый крупный в мире бесплатный архив песенных текстов, аккордов, табулатур и нот


Eve 6 - Arch Drive Goodbye - текст песни, таба, бас-таба, видео

Регистрация Запомнить меня
Войти через:  Facebook Google Twitter Vk Yandex Mail.ru

Eve 6 - Arch Drive Goodbye - текст песни, таба, бас-таба, видео

Печатать
Просмотров: 243
Уроки эстрадного вокала в Санкт-Петербурге
Author/Artist: Eve 6
Title: Arch Drive Goodbye
Album: It's All in Your Head
Transcribed by: Preston
Email: p3stone@yahoo.com

Intro/Verse 1

---------------------------------------------|------------------------------
---------------------------------------------|------------------------------
---------------------------------------------|------------------------------
-------4-----------1-----------2-1-----1-2---|-------4-----1-2--------------
-2--2-----2----------------------------------|-2--2-----2-------------------
-------------2--2-----2--0--0-------0--------|------------------------------
                                                                              
Prechorus

----------------------------------------------------------------------------
----------------------------------------------------------------------------
-11--11--9--9--8--9--8-----11--11--9--9--8--9--8----------------------------
------------------------9-------------------------9--11--11-----------------
----------------------------------------------------------------------------
----------------------------------------------------------------------------

Verse 2

------|------------|--------------------------------------------------------
------|------------|--------------------------------------------------------
-8/9--|---4-4-4-4--|---3-3-3-4----------------------------------------------
------|---4-4-4-4--|---4-4-4-4----------------------------------------------
-6/7--|-2----------|-2------------------------------------------------------
------|------------|--------------------------------------------------------

Prechorus
                                                                              
"Wanna be with you tonight..."
----------------------------------------------------------------------------
----------------------------------------------------------------------------
----------------------------------------------------------------------------
-4-----2--------------------------------------------------------------------
-4-x8--2-x8-----------------------------------------------------------------
-2-----0--------------------------------------------------------------------
                                                                              
"Cause I..."                          "Wanna keep you..."
-------------------------------------|--------------------------------------
-------------------------------------|--------------------------------------
-4-4-xxxx----------------------------|-4------------------------------------
-4-4-xxxx-4-4-xxxx-2-2-xxxx-2-2-xxxx-|-4-x4--4-----2------------------------
-2-2-xxxx-4-4-xxxx-2-2-xxxx-2-2-xxxx-|-2-----4-x4--2-x8---------------------
----------2-2-xxxx-0-0-xxxx-2-2-xxxx-|-------2-----0------------------------
                                                                              
"I wish I could comprimise..."
----------------------------------------------------------------------------
----------------------------------------------------------------------------
-4--------------------------------------------------------------------------
-4--4--6--2-----------------------------------------------------------------
-2--4--6--2-----------------------------------------------------------------
----2--4--0-----------------------------------------------------------------
Добавлено: 27.03.2012
Другие материалы по этой песне:
  • Аккорды и текст

Страница создана 26.03.2012
http://primanota.ru/eve-6/arch-drive-goodbye-chords.htm
Привет, Гость.
Предлагаем пройти революционный курс по гитаре.
Подарок от PrimaNota.Ru, забирай!