PrimaNota.ru - самый крупный в мире бесплатный архив песенных текстов, аккордов, табулатур и нот


Evans Faith - Hope - текст песни, таба, видео

Регистрация Запомнить меня
Войти через:  Facebook Google Twitter Vk Yandex Mail.ru

Evans Faith - Hope - текст песни, таба, видео

Печатать
Просмотров: 87
Hope - Faith Evans and Twista

Capo 4

  G         D/F#        Em               G         D/F#      Em 
e|---------|----------|-----------------|---------|---------|-----------------|
b|---------|----------|-----------------|-------0-|-------3-|-----------------|
G|-------0-|-------2--|-------0---------|-----0---|-----2---|-------0---------|
D|-----0---|-----0----|-----2-----2---0-|---0-----|---0-----|-----2-----2---0-|
A|---2-----|---0------|---2---------2---|---------|---------|---2---------2---|
E|-3-------|-2--------|-0---------------|-3-------|-2-------|-0---------------|


  G         D/F#        Em               Am7        Bm7      C 
e|---------|----------|-----------------|---------|---------|--------3-3h5p3-------3-|
b|---------|----------|-----------------|-------1-|-------3-|-----3h5-------3h5p3----|
G|-------0-|-------2--|-------0---------|-----0---|-----2---|--------------------4---|
D|-----0---|-----0----|-----2-----2---0-|---2-----|---4-----|---5--------------------|
A|---2-----|---0------|---2---------2---|-0-------|-2-------|-3----------------------|
E|-3-------|-2--------|-0---------------|---------|---------|------------------------|


_______________________________
Requested by Ashleigh at OLSHCK
Добавлено: 03.11.2015
Другие материалы по этой песне:
  • Аккорды и текст

Страница создана 16.12.2013
http://primanota.ru/evans-faith/hope-chords.htm
Привет, Гость.
Предлагаем пройти революционный курс по гитаре.
Подарок от PrimaNota.Ru, забирай!