PrimaNota.ru - самый крупный в мире бесплатный архив песенных текстов, аккордов, табулатур и нот


Evans Blue - Painted - текст песни, таба, видео

Регистрация Запомнить меня
Войти через:  Facebook Google Twitter Vk Yandex Mail.ru

Evans Blue - Painted - текст песни, таба, видео

Печатать
Просмотров: 162
-----------------------------------------------------------------------------
			"Painted" -- Evans Blue
-----------------------------------------------------------------------------
Tabbed by: thewakebehindyou
Email: thewakebehindyou@excite.com
January 21st, 2008

Rhythm and Lead parts for the 9 minute Epic "Painted," track 10 off of Evans
Blue's sophomore album:
"The Pursuit Begins When This Portrayal of Life Ends"

Transcribed completely by ear, any and all feedback is appreciated.

Tuning: C# G# C# F# A# D#

===============================================================================

Parker Lauzon
Rhythm Guitar

Intro/Verse I 0:03 - 1:15
 |x20 ringing
e|----------------------------------------------------|
B|----------------------------------------------------|
G|-----------6-------------6--------------------------|
D|-------6-----6-6-----6-----6------------------------|
A|---7h9---9---------9---9----------------------------|
E|----------------------------------------------------|
     

Pre-Chorus 1:16 - 1:36
e|--------------------------|
B|--------------------------|
G|--------------------------|
D|---11--7--11--7--9--7-----|
A|---11--7--11--7--9--7-----|
E|---11--7--11--7--9--7-----|

Chorus 1:36 - 1:57                               |2x
e|-----------------------------------------------|---------------------------|
B|-----------------------------------------------|---------------------------|
G|-----------------------------------------------|---------6-------------6---|
D|-11---11-11\9-9--9-9\7---11--11-11\9-9--9-9\7--|-----6-----6-6-----6-----6-|
A|-11---11-11\9-9--9-9\7---11--11-11\9-9--9-9\7--|-7h9---9---------9---9-----|
E|-11---11-11\9-9--9-9\7---11--11-11\9-9--9-9\7--|---------------------------|
                                                   x x x x x x x   x x x x x
Verse II 1:57 - 2:26
 |x8 palm muted		             |change on 4th & 8th time only
e|-----------------------------------|----------------------------------|
B|-----------------------------------|----------------------------------|
G|---------------------8-------------|------------------8---------------|
D|-----------6-----------9-7-6-------|--------6-----------9-7-6-7-6-----|
A|---6-7-6-7---7-6-7-6---------9-7-6-|--6-7-6---7-6-7-6-------------9---|
E|-----------------------------------|----------------------------------|
     x x x x x x x x x x x x x x x x    x x x x x x x x x x x x x x x

Fill 2:26 - 2:39
e|---------------------------|
B|---------------------------|
G|---------------------------|
D|---2----7----2----7--------|
A|---2----7----2----7--------|
E|---2----7----2----7--------|

Pre-Chorus 2:41 - 3:02
e|--------------------------|
B|--------------------------|
G|--------------------------|
D|---11--7--11--7--9--7-----|
A|---11--7--11--7--9--7-----|
E|---11--7--11--7--9--7-----|

Chorus 3:03 - 3:16
e|---------------------------------------------------------|
B|---------------------------------------------------------|
G|---------------------------------------------------------|
D|--11---11-11\9-9--9-9\7---11--11-11\9-9--9-9\7--7--7-7---|
A|--11---11-11\9-9--9-9\7---11--11-11\9-9--9-9\7--7--7-7---|
E|--11---11-11\9-9--9-9\7---11--11-11\9-9--9-9\7--7--7-7---|

Bridge 3:17 -
e|-------------------------------------------------------------------|
B|-------------------------------------------------------------------|
G|-------------------------------------------------------------------|
D|-----7-6-----7-6---7-6---7-6-----7-6---7-6-----7-6-----7-6---7-6---|
A|---9-------9-----7-----4-------4-----4-------9-------9-----7-------|
E|-------------------------------------------------------------------|

e|---------------------------------------------|
B|---------------------------------------------|
G|---------------------------------------------|
D|---9-11-11-9-11-11-9-11-9-11-11-9-11-11-11---|
A|---9-11-11-9-11-11-9-11-9-11-11-9-11-11-11---|
E|---9-11-11-9-11-11-9-11-9-11-11-9-11-11-11---|

e|---------------------------------------------|
B|---------------------------------------------|
G|---------------------------------------------|
D|---6-7-7-6-7-7-6-7-6-7-7-6-7-7-7-------------|
A|---6-7-7-6-7-7-6-7-6-7-7-6-7-7-7-------------|
E|---6-7-7-6-7-7-6-7-6-7-7-6-7-7-7-------------|

e|---------------------------------------------|
B|---------------------------------------------|
G|---------------------------------------------|
D|---9-11-11-9-11-11-9-11-9-11-11-9-11-11-11---|
A|---9-11-11-9-11-11-9-11-9-11-11-9-11-11-11---|
E|---9-11-11-9-11-11-9-11-9-11-11-9-11-11-11---|

e|---------------------------------------------|
B|---------------------------------------------|
G|---------------------------------------------|
D|---6-7-7-6-7-7-6-7-6-7-7-7-7-----------------|
A|---6-7-7-6-7-7-6-7-6-7-7-7-7-----------------|
E|---6-7-7-6-7-7-6-7-6-7-7-7-7-----------------|
                       x x x x           - 3:41

Pre-Chorus 3:42 - 4:11
e|---------------------------------------|
B|---------------------------------------|
G|---------------------------------------|
D|---11--7--11--7--9--7--9--7-7-7-7-77---|
A|---11--7--11--7--9--7--9--7-7-7-7-77---|
E|---11--7--11--7--9--7--9--7-7-7-7-77---|


Chorus 4:12 - 4:39
e|-----------------------------------------------------------------|
B|-----------------------------------------------------------------|
G|-----------------------------------------------------------------|
D|--11---11-11\9-9--9-9\7-7-7---11-11-11--11-11\9-9--9-9\7--7--7---|
A|--11---11-11\9-9--9-9\7-7-7---11-11-11--11-11\9-9--9-9\7--7--7---|
E|--11---11-11\9-9--9-9\7-7-7---11-11-11--11-11\9-9--9-9\7--7--7---|

e|-----------------------------------------------------------------|
B|-----------------------------------------------------------------|
G|-----------------------------------------------------------------|
D|--11---11-11\9-9--9-9\7-7-7---11-11-11--11-11\9-9--9-9\7--7--7---|
A|--11---11-11\9-9--9-9\7-7-7---11-11-11--11-11\9-9--9-9\7--7--7---|
E|--11---11-11\9-9--9-9\7-7-7---11-11-11--11-11\9-9--9-9\7--7--7---|
	                                                 x  x  x

Instrumental Break I 4:44 - 6:19
e|---------------------------------------------|
B|---------------------------------------------|
G|---------------------------------------------|
D|-----7-6-----7-6---7-6---7-6-----7-6---7-6---|
A|---9-------9-----7-----4-------4-----4-------|
E|---------------------------------------------|

Instrumental Break II 6:24 - 7:25
e|---------------------------|
B|---------------------------|
G|---------------------------|
D|---4----2----9----11-------|
A|---4----2----9----11-------|
E|---4----2----9----11-------|

Outro 7:36 - 8:15
e|----------------------------------------------------------------------------|
B|----------------------------------------------------------------------------|
G|----------------------------------------------------------------------------|
D|-11-11--11\9--12-12-12\11-11-11\9--12-12-12\11-11-11\9--12-12-12\11-11-11\9-|
A|-11-11--11\9--12-12-12\11-11-11\9--12-12-12\11-11-11\9--12-12-12\11-11-11\9-|
E|-11-11--11\9--12-12-12\11-11-11\9--12-12-12\11-11-11\9--12-12-12\11-11-11\9-|

e|------------------------------------------------------------------|
B|------------------------------------------------------------------|
G|------------------------------------------------------------------|
D|--12-12-12\11-11-11\9---12-12-12\11-11-11\9---12-12-12\11-11-11\9-|
A|--12-12-12\11-11-11\9---12-12-12\11-11-11\9---12-12-12\11-11-11\9-|
E|--12-12-12\11-11-11\9---12-12-12\11-11-11\9---12-12-12\11-11-11\9-|


=============================================================================


Vlad Tanaskovic
Lead Guitar

Intro 0:05 - 0:30
           ~~               ~~                ~~
e|-------------------------------------------------------------------------|
B|--10-9-------------10-9-------12-----10-9-------------------9------------|
G|-9-----9-11-9-----9-----9-11-9------9-----9-11-9-----------8-8-9p8-------|
D|-------------11---------------------------------11----9-9-9-------11-----|
A|-------------------------------------------------------------------------|
E|-------------------------------------------------------------------------|

Verse I 0:31 - 1:15
 |x8
e|---------------------------------------------|
B|----------12------------14-------------12----|
G|--13-13-13---11h13-13-13----11-13-11-13------|
D|---------------------------------------------|
A|---------------------------------------------|
E|---------------------------------------------|
 |after 8th time
e|------------------------------------------|
B|--------10-9---------------10-9------12---|
G|---9h11-----9-11-9----9h11-----9-11-9-----|
D|------------------11----------------------|
A|------------------------------------------|
E|------------------------------------------|


Pre-Chorus 1:16 - 1:36
   ~~                   ~~
e|----12-11----------------12-11------------------------------|
B|-14------12-12-14-14--14------12-12-14--------------9-------|
G|--------------------------------------13--11--9--11---9-----|
D|------------------------------------------------------------|
A|------------------------------------------------------------|
E|------------------------------------------------------------|

Chorus 1:36 - 1:51
e|----------------------------------------------------------|
B|----------------------------------------------------------|
G|----------------------------------------------------------|
D|-11---11-11\9-9--9-9\7---11--11-11\9-9--9-9\7----11----7--|
A|-11---11-11\9-9--9-9\7---11--11-11\9-9--9-9\7----11----7--|
E|-11---11-11\9-9--9-9\7---11--11-11\9-9--9-9\7----11----7--|

Verse II  1:51 -
 |4x (wait for rhythm guitar)
e|-------------------------------------------------|
B|-------------------------------------------------|
G|--6/8--6/8--8/9\8--------------------------------|
D|--4/6--4/6--6/7\6--------------------------------|
A|-------------------------------------------------|
E|-------------------------------------------------|

Fill 2:26 - 2:39
e|------------------------------------------------------------|
B|--------10-9-------------------10-9--------12---------------|
G|-9h11-9------9-11p9-----9h11-9------9-11-9------------------|
D|--------------------11--------------------------------------|
A|------------------------------------------------------------|
E|------------------------------------------------------------|
                               X
Pre-Chorus 2:41 - 3:02
   ~~~~               ~~~~~~~~               ~~~~
e|-----12-11------------------12-11-------------------------------|
B|-14--------12-12-14-14--14--------12-12-14----------------9-----|
G|-------------------------------------------13--11--9---11---9---|
D|----------------------------------------------------------------|
A|----------------------------------------------------------------|
E|----------------------------------------------------------------|

Chorus 3:03 - 3:16
e|---------------------------------------------------------|
B|---------------------------------------------------------|
G|---------------------------------------------------------|
D|--11---11-11\9-9--9-9\7---11--11-11\9-9--9-9\7--7--7-7---|
A|--11---11-11\9-9--9-9\7---11--11-11\9-9--9-9\7--7--7-7---|
E|--11---11-11\9-9--9-9\7---11--11-11\9-9--9-9\7--7--7-7---|

Bridge 3:29 - 3:40
e|------------------------------------------------------------------------|
B|------------------------------------------------------------------------|
G|--8-8------------------------------------8-8----------------------------|
D|--x-x---7h9-7-6---------9-8------9-8-----x-x---7h9-7-6---------9-8------|
A|--6-6-----------9-7---9-----9--9-----9---6-6-----------9-7---9-----9----|
E|------------------------------------------------------------------------|


Pre-Chorus 3:42 - 4:11
   ~~~~               ~~~~~~~~               ~~~~                      ~~~~~~~
e|-----12-11------------------12-11-------------------------------------------|
B|-14--------12-12-14-14--14--------12-12-14---------------9-----------12h14--|
G|-------------------------------------------13--11--9--11---9--11--9---------|
D|----------------------------------------------------------------------------|
A|----------------------------------------------------------------------------|
E|----------------------------------------------------------------------------|

Chorus 4:12 - 4:44
e|-----------------------------------------------------------------|
B|-----------------------------------------------------------------|
G|-----------------------------------------------------------------|
D|--11---11-11\9-9--9-9\7-7-7---11-11-11--11-11\9-9--9-9\7--7--7---|
A|--11---11-11\9-9--9-9\7-7-7---11-11-11--11-11\9-9--9-9\7--7--7---|
E|--11---11-11\9-9--9-9\7-7-7---11-11-11--11-11\9-9--9-9\7--7--7---|

e|-----------------------------------------------------------------|
B|-----------------------------------------------------------------|
G|-----------------------------------------------------------------|
D|--11---11-11\9-9--9-9\7-7-7---11-11-11--11-11\9-9--9-9\7--7--7---|
A|--11---11-11\9-9--9-9\7-7-7---11-11-11--11-11\9-9--9-9\7--7--7---|
E|--11---11-11\9-9--9-9\7-7-7---11-11-11--11-11\9-9--9-9\7--7--7---|
	                                                 x  x  x

Guitar Solo 4:59 - 7:26
4:59			~~~~ 		         ~~~~		           ~~~~
e|---------------------------------------------------------------------------|
B|------10-10-10-10-9-9----------10-10-10-10-9-9-----------10-10-10-10-9-9---|
G|-9h11----------------9----9h11----------------9-----9h11----------------9--|
D|----------------------11-----------------------11------------------------11|
A|---------------------------------------------------------------------------|
E|---------------------------------------------------------------------------|

5:21                      ~~~~
e|----------------------7-9------------------------------------------------------------|
B|------10-10-10-10-9-9-------9--10-10-10-10-9-9----------------10-10-10-10-9-9--------|
G|-9h11-----------------------------------------9-11-9-----9h11----------------9-11-9--|
D|----------------------------------------------------11-----------------------------11|
A|-------------------------------------------------------------------------------------|
E|-------------------------------------------------------------------------------------|

5:42
e|---------------------------------------------------12-12p11-11-------------|
B|-12-12-----12h14-14-14---12-12----12h14-14-14---14------------12-12-14-----|
G|--------13---------------------13------------------------------------------|
D|---------------------------------------------------------------------------|
A|---------------------------------------------------------------------------|
E|---------------------------------------------------------------------------|

6:03
e|-------12-12p11-11-14-14h16--14-14h16-16-16------12-12-12-12-11-11---------|
B|-12h14--------------------------------------12h14-----------------12-12h14-|
G|---------------------------------------------------------------------------|
D|---------------------------------------------------------------------------|
A|---------------------------------------------------------------------------|
E|---------------------------------------------------------------------------|

Uptempo
6:24  ~~                            ~~~~            ~~~~
e|---------------------------------------------------------------------------|
B|-12h14-12-12-12h14--12-----12----------------------------------------------|
G|----------------------13h14---14--11--13h14p13p11h13-----------------------|
D|--------------------------------14-----------------------------------------|
A|---------------------------------------------------------------------------|
E|---------------------------------------------------------------------------|

6:32         ~~~~
e|-----------11---11-11-11--11-12-11-----------------------------------------|
B|------12h14-------------14--------14----14-----14-----14-------------------|
G|-13h14--------------------------------14--14-13--13-11--11-----------------|
D|----------------------------------------------------------14--13h14--------|
A|---------------------------------------------------------------------------|
E|---------------------------------------------------------------------------|

6:38									 ~~~~
e|---------------------------------------------------------------------------|
B|---------------------------------------------------------------------------|
G|-11-11h13p11-------11-11h13p11---------------------------------------------|
D|------------14p11-------------14p11-----11-13h14p13-11---11-13h14p13---11--|
A|--------------------------------------14---------------14-----------14-----|
E|---------------------------------------------------------------------------|

6:43                                    ~~~~
e|---------------------------------------------------------------------------|
B|--------------------------12-----------------------------------------------|
G|------------------------11--14p13p11--11----------11-13-11-------------^18-|
D|---11-----11-13-14-11-13------------14----14-14-14--------14-13-13-14-14---|
A|-14--11-14-----------------------------------------------------------------|
E|---------------------------------------------------------------------------|

Tremelo Picking
6:53                                                             |no trem~~~~~
e|--19---16---19---16---17-16----16------------------------------|------------|
B|----------------------------19----19-17-19---------------------|------------|
G|-------------------------------------------20-18-16-18-16------|-------13-13|
D|----------------------------------------------------------19-18|-14-16------|
A|---------------------------------------------------------------|------------|
E|---------------------------------------------------------------|------------|

7:07                                                 ~~~~
e|-------12p11------------12p11--14--16--------------------------------------|
B|------------12h14------------12--12--12-16-12-12-14------------------------|
G|--13h14------------13h14---------------------------13----------------------|
D|---------------------------------------------------------------------------|
A|---------------------------------------------------------------------------|
E|---------------------------------------------------------------------------|

                                                    ~~~~~~~~~~~~~~~~~~~~~~~~~
e|-------12p11------------12p11--14h16------19---------------14--------------|
B|------------12h14------------12-----14p12---19-19-21----------14-17-16-----|
G|--13h14------------13h14-----------------------------------------------13--|
D|---------------------------------------------------------------------------|
A|---------------------------------------------------------------------------|
E|---------------------------------------------------------------------------|
								       - 7:26
Outro 7:36 - 8:50
e|---9------------------------------------------------------------------9---|
B|---6-------------------Spoken while holding out chord-----------------6---|
G|---6--------""Pogledaj Ispred Sebe Prije Nego Sto Odkocas Sve""-------6---|
D|---6------------------------------------------------------------------6---|
A|--------------------------------------------------------------------------|
E|--------------------------------------------------------------------------|


===============================================================================

| /  slide up
| \  slide down
| h  hammer-on
| p  pull-off
| ~  vibrato
| +  harmonic
| x  Mute note

===============================================================================
Добавлено: 11.05.2012
Другие материалы по этой песне:
  • Аккорды и текст

Страница создана 11.05.2012
http://primanota.ru/evans-blue/painted-chords.htm
Привет, Гость.
Предлагаем пройти революционный курс по гитаре.
Подарок от PrimaNota.Ru, забирай!