PrimaNota.ru - самый крупный в мире бесплатный архив песенных текстов, аккордов, табулатур и нот


Evans Blue - No One Looks As Good As You In That - текст песни, таба, видео

Регистрация Запомнить меня
Войти через:  Facebook Google Twitter Vk Yandex Mail.ru

Evans Blue - No One Looks As Good As You In That - текст песни, таба, видео

Печатать
Просмотров: 87
            NO ONE LOOKS AS GOOD AS YOU IN THAT - Evans Blue
--------------------------------------------------------------------------

Tabbed by: am33

Tuning: Drop D

Intro:(Also played through verses)

e|---5--5--5---5--5--5--5--5---5--5--5--5--5---5--5--5--5--5---5--5--------|
B|-----3--3---3--------3--3---3--------3--3---3--------3--3---3------------|
G|--0-0--0---0---0--0-0--0---0---0--0-0--0---0---0--0-0--0---0---0---------|
D|-------------------------------------------------------------------------|
A|-------------------------------------------------------------------------|
D|-------------------------------------------------------------------------|

Verse: Main Riff

e|-------------------------------------------------------------------------|
B|-------------------------------------------------------------------------|
G|-------------------------------------------------------------------------|
D|---0-0-0-0-0-0-0-0-0-0-0-0-0-0-0-0---0-------0-------0-------0-----------|
A|----0-0-0---0-0-0---0-0-0---0-0-0--0---0-0-0---0-0-0---0-0-0---0-0-------|
D|--9-------9-------7-------7-------5-5-5-5-5-5-5-5-5-5-5-5-5-5-5-5--------|

Slight variation on the 3rd time:

e|-------------------------------------------------------------------------|
B|-------------10---------------10-----------------------------------------|
G|-------------------------------------------------------------------------|
D|---0-0-0-0-0----0-0-0-0-0-0-0----0-0---0-------0-------0-------0---------|
A|----0-0-0---0----0---0-0-0---0----0--0---0-0-0---0-0-0---0-0-0---0-0-----|
D|--9-------9--------7-------7--------5-5-5-5-5-5-5-5-5-5-5-5-5-5-5-5------|

Pre-Chorus:

e|-------------------------------------------------------------------------|
B|-------------------------------------------------------------------------|
G|-------------0---------------0---------------0---------------0-----------|
D|---0-0-0-0-0---0-0-0-0-0-0-0---0-0-0-0-0-0-0---0-0-0-0-0-0-0---0-0-0-0-0-|
A|----0-0-0-0-0-0-0---0-0-0-0-0-0-0---0-0-0-0-0-0-0---0-0-0-0-0-0-0---0-0-0|
D|--2---------------5---------------2---------------5---------------5------|

e|---------------|
B|---------------|
G|---------------|
D|-0-0--7-7------|
A|--0-0-7-7------|
D|------7-7------|

Chorus:

e|-------------------------------------------------------------------------|
B|-3---3---3--3-3--3---3---3---3--3-3--3-----------------------------------|
G|-2---2---2--2-2--2---2---2---2--2-2--2---11--11--11-1111-11--11--11- 1111|
D|-0---0---0--0-0--0---0---0---0--0-0--0---9---9---9--9-9--9---9---9---9-9-|
A|-0---0---0--0-0--0---0---0---0--0-0--0---9---9---9--9-9--9---9---9---9-9-|
D|-0---0---0--0-0--0---0---0---0--0-0--0---9---9---9--9-9--9---9---9---9-9-|

e|-------------------------------------------------------------------------|
B|-------------------------------------------------------------------------|
G|-11-11---7---7---7--7-7--7---9---9---9--9-9--9---------------------------|
D|-9--9\4--5---5---5--5-5--5---7---7---7--7-7--7---------------------------|
A|-9--9\4--5---5---5--5-5--5---7---7---7--7-7--7---------------------------|
D|-9--9\4--5---5---5--5-5--5---7---7---7--7-7--7---------------------------|

Verse 2:

e|-------------------------------------------------------------------------|
B|-------------------------------------------------------------------------|
G|-------------------------------------------------------------------------|
D|---0-0-0-0-0-0-0-0-0-0-0-0-0-0-0-0---0-------0-------0-------0-----------|
A|----0-0-0---0-0-0---0-0-0---0-0-0--0---0-0-0---0-0-0---0-0-0---0-0-------|
D|--9-------9-------7-------7-------5-5-5-5-5-5-5-5-5-5-5-5-5-5-5-5--------|

e|-------------------------------------------------------------------------|
B|-------------10---------------10-----------------------------------------|
G|-------------------------------------------------------------------------|
D|---0-0-0-0-0----0-0-0-0-0-0-0----0-0---0-------0-------0-------0---------|
A|----0-0-0---0----0---0-0-0---0----0--0---0-0-0---0-0-0---0-0-0---0-0-----|
D|--9-------9--------7-------7--------5-5-5-5-5-5-5-5-5-5-5-5-5-5-5-5------|

e|-------------------------------------------------------------------------|
B|-------------10---------------10-----------------------------------------|
G|-------------------------------------------------------------------------|
D|---0-0-0-0-0----0-0-0-0-0-0-0----0-0---0-------0-------0-------0---------|
A|----0-0-0---0----0---0-0-0---0----0--0---0-0-0---0-0-0---0-0-0---0-0-----|
D|--9-------9--------7-------7--------5-5-5-5-5-5-5-5-5-5-5-5-5-5-5-5------|

Pre-Chorus: X1

Chorus 2:

e|-------------------------------------------------------------------------|
B|-3---3---3--3-3--3---3---3---3--3-3--3-----------------------------------|
G|-2---2---2--2-2--2---2---2---2--2-2--2---11--11--11-1111-11--11--11- 1111|
D|-0---0---0--0-0--0---0---0---0--0-0--0---9---9---9--9-9--9---9---9---9-9-|
A|-0---0---0--0-0--0---0---0---0--0-0--0---9---9---9--9-9--9---9---9---9-9-|
D|-0---0---0--0-0--0---0---0---0--0-0--0---9---9---9--9-9--9---9---9---9-9-|

e|-------------------------------------------------------------------------|
B|-------------------------------------------------------------------------|
G|-11-11---7---7---7--7-7--7---9---9---9--9-9--9-11--11-111111-11--11-1111-|
D|-9--9\4--5---5---5--5-5--5---7---7---7--7-7--7-9---9--9-9-9--9---9--9-9--|
A|-9--9\4--5---5---5--5-5--5---7---7---7--7-7--7-9---9--9-9-9--9---9--9-9--|
D|-9--9\4--5---5---5--5-5--5---7---7---7--7-7--7-9---9--9-9-9--9---9--9-9--|

e|-------------------------------------------------------------------------|
B|-3---3---3--3-3--3---3---3---3--3-3--3-----------------------------------|
G|-2---2---2--2-2--2---2---2---2--2-2--2---11--11--11-1111-11--11--11- 1111|
D|-0---0---0--0-0--0---0---0---0--0-0--0---9---9---9--9-9--9---9---9---9-9-|
A|-0---0---0--0-0--0---0---0---0--0-0--0---9---9---9--9-9--9---9---9---9-9-|
D|-0---0---0--0-0--0---0---0---0--0-0--0---9---9---9--9-9--9---9---9---9-9-|

e|-------------------------------------------------------------------------|
B|-------------------------------------------------------------------------|
G|-11-11---7---7---7--7-7--7---9---9---9--9-9--9---------------------------|
D|-9--9\4--5---5---5--5-5--5---7---7---7--7-7--7---------------------------|
A|-9--9\4--5---5---5--5-5--5---7---7---7--7-7--7---------------------------|
D|-9--9\4--5---5---5--5-5--5---7---7---7--7-7--7---------------------------|

Bridge:

e|-------------------------------------------------------------------------|
B|-------------------------------------------------------------------------|
G|-11-11-7--7-7-77-4-444------------11-11-7--7-7-777-4-444----------------|
D|-9--9--5--5-5-55-2-222-0-2p0-2p00-9--9--5--5-5-555-2-222-0-2p0-2p00-----|
A|-9--9--5--5-5-55-2-222-0-2p0-2p00-9--9--5--5-5-555-2-222-0-2p0-2p00-----|
D|-9--9--5--5-5-55-2-222-0-2p0-2p00-9--9--5--5-5-555-2-222-0-2p0-2p00-----|

e|-------------------------------------------------------------------------|
B|-------------------------------------------------------------------------|
G|-11-11-7--7-7-77-4-444------------11-11-7--7-7-77-9-9-9-9-9-9-9-9-9-9-9-9|
D|-9--9--5--5-5-55-2-222-0-2p0-2p00-9--9--5--5-5-55-7-7-7-7-7-7-7-7-7-7-7-7|
A|-9--9--5--5-5-55-2-222-0-2p0-2p00-9--9--5--5-5-55-7-7-7-7-7-7-7-7-7-7-7-7|
D|-9--9--5--5-5-55-2-222-0-2p0-2p00-9--9--5--5-5-55-7-7-7-7-7-7-7-7-7-7-7-7|

e|-------------|
B|-------------|
G|-9-9-9-9-----|
D|-7-7-7-7-----|
A|-7-7-7-7-----|
D|-7-7-7-7-----|

Chorus 3/Outro: (Play twice)

e|-----------------------------------------0---0---0--0-0--0---0---0---0-0-|
B|-3---3---3--3-3--3---3---3---3--3-3--3---0---0---0--0-0--0---0---0---0-0-|
G|-2---2---2--2-2--2---2---2---2--2-2--2---x---x---x--x-x--x---x---x---x-x-|
D|-0---0---0--0-0--0---0---0---0--0-0--0---4---4---4--4-4--4---4---4---4-4-|
A|-0---0---0--0-0--0---0---0---0--0-0--0---2---2---2--2-2--2---2---2---2-2-|
D|-0---0---0--0-0--0---0---0---0--0-0--0-----------------------------------|

e|-0---0---0---0--0-0--0---0---0---0--0-0--0--------|
B|-0---0---0---0--0-0--0---0---0---0--0-0--0--------|
G|-x---7---7---7--7-7--7---9---9---9--9-9--9--------|
D|-44--5---5---5--5-5--5---7---7---7--7-7--7--------|
A|-24--5---5---5--5-5--5---7---7---7--7-7--7--------|
D|--4--5---5---5--5-5--5---7---7---7--7-7--7--------|

End with:

e|---------------------------|
B|--3------------------------|
G|--2------------------------|
D|--0------------------------|
A|--0------------------------|
D|--0------------------------|

END



************************************

| /   slide up
| \   slide down
| h   hammer-on
| p   pull-off
| ~   vibrato
| +   harmonic
| x   Mute note
| b   Bend
| pb  Pre-bend
| br  Bend release
| pbr Pre-bend release
| brb Bend release bend

************************************
Добавлено: 14.05.2012
Другие материалы по этой песне:
  • Аккорды и текст

Страница создана 14.05.2012
http://primanota.ru/evans-blue/no-one-looks-as-good-as-you-in-that-chords.htm
Привет, Гость.
Предлагаем пройти революционный курс по гитаре.
Подарок от PrimaNota.Ru, забирай!