PrimaNota.ru - самый крупный в мире бесплатный архив песенных текстов, аккордов, табулатур и нот


Evans Blue - Kiss The Flag - текст песни, таба, видео

Регистрация Запомнить меня
Войти через:  Facebook Google Twitter Vk Yandex Mail.ru

Evans Blue - Kiss The Flag - текст песни, таба, видео

Печатать
Просмотров: 206
-------------------------------------------------------------------------------
                             KISS THE FLAG - Evans Blue
-------------------------------------------------------------------------------
Tabbed by: damien-fr
Email:

Tuning: Drop C (C G C F A D)

Intro And Verse
e|---------------------------------------------------------------------------|
B|---------------------------------------------------------------------------|
G|----------6----------------6---------------6-------------------------------|
D|------7-7---7---7------7-7---7---7-----7-7---7---7-------------------------|
A|--9-9---------9----9-9---------9---9-9---------9---------------------------|
E|---------------------------------------------------------------------------|
Later in the verse you play
e|---------------------------------------------------------------------------|
B|---------------------------------------------------------------------------|
G|----------7----------------7-----------------------------------------------|
D|------7-7---7---7------7-7---7---7-----------------------------------------|
A|--9-9---------9----9-9---------9-------------------------------------------|
E|---------------------------------------------------------------------------|
Just continue playing this over and over.



Chorus: Play these chords. Listen for the ryhthm and timing.
e|---------------------------------------------------------------------------|
B|---------------------------------------------------------------------------|
G|---------------------------------------------------------------------------|
D|--9----0---5--5--9---7---5-------------------------------------------------|
A|--9----0---5--5--9---7---5-------------------------------------------------|
E|--9----0---5--5--9---7---5-------------------------------------------------|


Verse 2
e|---------------------------------------------------------------------------|
B|---------------------------------------------------------------------------|
G|----------6----------------6---------------6-------------------------------|
D|------7-7---7---7------7-7---7---7-----7-7---7---7-------------------------|
A|--9-9---------9----9-9---------9---9-9---------9---------------------------|
E|---------------------------------------------------------------------------|

e|---------------------------------------------------------------------------|
B|---------------------------------------------------------------------------|
G|----------7----------------7-----------------------------------------------|
D|------7-7---7---7------7-7---7---7-----------------------------------------|
A|--9-9---------9----9-9---------9-------------------------------------------|
E|---------------------------------------------------------------------------|


Chorus x2
e|---------------------------------------------------------------------------|
B|---------------------------------------------------------------------------|
G|---------------------------------------------------------------------------|
D|--9---0---5--5--9---7---5----------------------------------------------------|
A|--9---0---5--5--9---7---5----------------------------------------------------|
E|--9---0---5--5--9---7---5----------------------------------------------------|


Bridge (Twice distorted and once clean)
e|---------------------------------------------------------------------------|
B|---------------------------------------------------------------------------|
G|---9-99-x-7~--7/9-9-x-9/11-x-11/12\11--9-9-99-9-99-99-7-7-77-7-77-77-------|
D|---x-xx-x-x~--x-x-x-x-x-x--x-x--x--x---7-7-77-7-77-77-5-5-55-5-55-55-------|
A|---7-77-x-5~--5/7-7-x-7/9--x-9/-10\9---7-7-77-7-77-77-5-5-55-5-55-55-------|
E|---------------------------------------7-7-77-7-77-77-5-5-55-5-55-55-------|
Play this Twice
e|---------------------------------------------------------------------------|
B|---------------------------------------------------------------------------|
G|---------------------------------------------------------------------------|
D|--9-7-5-7-5-4--9-7-5-7-5-4-7~--5~------------------------------------------|
A|--9-7-5-7-5-4--9-7-5-7-5-4-7~--5~------------------------------------------|
E|--9-7-5-7-5-4--9-7-5-7-5-4-7~--5~------------------------------------------|


| /  slide up
| \  slide down
| h  hammer-on
| p  pull-off
| ~  vibrato
| +  harmonic
| x  Mute note
===============================================================================
Добавлено: 29.03.2012
Другие материалы по этой песне:
  • Аккорды и текст

Страница создана 22.02.2012
http://primanota.ru/evans-blue/kiss-the-flag-chords.htm
Привет, Гость.
Предлагаем пройти революционный курс по гитаре.
Подарок от PrimaNota.Ru, забирай!