PrimaNota.ru - самый крупный в мире бесплатный архив песенных текстов, аккордов, табулатур и нот


Evans Blue - Halo - текст песни, таба, видео

Регистрация Запомнить меня
Войти через:  Facebook Google Twitter Vk Yandex Mail.ru

Evans Blue - Halo - текст песни, таба, видео

Печатать
Просмотров: 233
----------------------------------------------------------------------------
                                  Halo
                               Evans Blue
----------------------------------------------------------------------------
They did it again. Evans Blue, after making the incredible “This Time it's Different”
has now another song that has just blown me away. It has great guitar riffs and a very
cool guitar solo. I love the song mainly because the darkness in the music and lyrics. I 
just couldn't resist learning it, and hopefully you can too. Enjoy!

Username: dkm817 (same on X box live)
Youtube Cover: http://www.youtube.com/watch?v=2UvXzVZvM2Q
Email: guitardrums@rockfan.com

Guitar 1 Rhythmic (C G C F A D)
Guitar 2 Lead     (C G C F A D)
Guitar 3 Rhythmic (C G C F A D)

Tab Guide...

==================================================================
(end of measures)

==================================================================
==================================================================
(end of parts)

==================================================================
==================================================================
==================================================================
(end of song)

(If there is a “continued” it is because the numbers could not
fit on 1 line.)


Intro 1

Guitar 1
D-----------------------------------------------------------------|
A-----------------------------------------------------------------|
F-----------------------------------------------------------------|
C-----------------------------------------------------------------|
G-------------3-2-----------------------------3-2-----------------|
C-5-2-0~~-2~~-----0~~-2~~-5-2-0~~-5-2-0~~-2~~-----0~~-2~~-5-2-0~~-|

==================================================================

Guitar 1
D-----------------------------------------------------------------|
A-----------------------------------------------------------------|
F-----------------------------------------------------------------|
C---------------------------------------------------------x-x---x-|
G-------------3-2-----------------------------3-2---------x-x---x-|
C-5-2-0~~-2~~-----0~~-2~~-5-2-0~~-5-2-0~~-2~~-----0~~-2~~-x-x---x-|

Guitar 2 (Fade In)
D-----------------------------------------------------------------|
A-18*~~~~~~~~~~~~~~~~~~~~~~~~~~~~~~~~~~~~~~~~~~~~~~~~~~~~---------|
F-----------------------------------------------------------------|
C---------------------------------------------------------x-x---x-|
G---------------------------------------------------------x-x---x-|
C---------------------------------------------------------x-x---x-|

==================================================================
==================================================================


Intro 2

Guitar 1 & 2
D-----------------------------------------------------------------|
A-----------------------------------------------------------------|
F-----------------------------------------------------------------|
C-----------------------------------------------------------------|
G-------------3-2-----------------------------3-2-----------------|
C-5-2-0~~-2~~-----0~~-2~~-5-2-0~~-5-2-0~~-2~~-----0~~-2~~-5-2-0~~-|

==================================================================

Guitar 1 & 2
D-----------------------------------------------------------------|
A-----------------------------------------------------------------|
F-----------------------------------------------------------------|
C-------------------------------------------------5~~~~~~-0~~~~~~-|
G-------------3-2-----------------------------3-2-5~~~~~~-0~~~~~~-|
C-5-2-0~~-2~~-----0~~-2~~-5-2-0~~-5-2-0~~-2~~-----5~~~~~~-0~~~~~~-|

==================================================================
==================================================================


Bridge 2

Guitar 1
D-----------------------------------------------------------------|
A-----------------------------------------------------------------|
F-----------------------------------------------------------------|
C-5~~~~~~~~~~~~~~~~~~~~~~~~~~~~~~~~~~~~~~~~~~~~~~~~~~~~~~~~~~~~~~-
G-5~~~~~~~~~~~~~~~~~~~~~~~~~~~~~~~~~~~~~~~~~~~~~~~~~~~~~~~~~~~~~~-
C-5~~~~~~~~~~~~~~~~~~~~~~~~~~~~~~~~~~~~~~~~~~~~~~~~~~~~~~~~~~~~~~-

Guitar 2
D-----------------------------------------------------------------------|
A-----12--12-12-12--12--8---8---8---8---10--10--10--10--10--10--10--10--|
F-----------------------------------------------------------------------|
C-----------------------------------------------------------------------|
G-----------------------------------------------------------------------|
C-----------------------------------------------------------------------|

Guitar 3
D-----------------------------------------------------------------|
A-----------------------------------------------------------------|
F---------0~~~~~~~~~~~~~~-0~~~~~~~~~~~~~~-0~~~~~~~~~~~~~~-0~~~~~~-|
C-----4~~~~~~-4~~~~~~-4~~~~~~-4~~~~~~-4~~~~~~-4~~~~~~-4~~~~~~-4~~-|
G-----------------3~~~~~~~~~~~~~~-2~~~~~~~~~~~~~~-2~~~~~~~~~~~~~~-|
C-2~~~~~~~~~~~~~~-------------------------------------------------|

==================================================================

Guitar 2
D-----------------------------------------------------------------|
A-10--12--12--12--12--8---8---8---8---10--10--10--10--7---7---8---|
F-----------------------------------------------------------------|
C-----------------------------------------------------------------|
G-----------------------------------------------------------------|
C-----------------------------------------------------------------|

Guitar 3
D-----------------------------------------------------------------|
A-------------------------------------------------0~~~~~~~~~~~~~~-|
F---------0~~~~~~~~~~~~~~-0~~~~~~~~~~~~~~-0~~~~~~~~~~-0~~~~~~-0~~-|
C-----4~~~~~~-4~~~~~~-4~~~~~~-4~~~~~~-4~~~~~~-4~~~~~~~~~~-4~~~~~~-|
G-----------------3~~~~~~~~~~~~~~-2~~~~~~~~~~~~~~-2~~~~~~~~~~~~~~-|
C-2~~~~~~~~~~~~~~-------------------------------------------------|

==================================================================
==================================================================


Verse 1

(x2)

Guitar 3
D-----------------------------------------------------------------|
A-----------------------------------------------------------------|
F---------0~~~~~~~~~~~~~~-0~~~~~~~~~~~~~~-0~~~~~~~~~~~~~~-0~~~~~~-|
C-----4~~~~~~-4~~~~~~-4~~~~~~-4~~~~~~-4~~~~~~-4~~~~~~-4~~~~~~-4~~-|
G-----------------3~~~~~~~~~~~~~~-2~~~~~~~~~~~~~~-2~~~~~~~~~~~~~~-|
C-2~~~~~~~~~~~~~~-------------------------------------------------|

==================================================================

Guitar 3
D-----------------------------------------------------------------|
A-------------------------------------------------0~~~~~~~~~~~~~~-|
F---------0~~~~~~~~~~~~~~-0~~~~~~~~~~~~~~-0~~~~~~~~~~-0~~~~~~-0~~-|
C-----4~~~~~~-4~~~~~~-4~~~~~~-4~~~~~~-4~~~~~~-4~~~~~~~~~~-4~~~~~~-|
G-----------------3~~~~~~~~~~~~~~-2~~~~~~~~~~~~~~-2~~~~~~~~~~~~~~-|
C-2~~~~~~~~~~~~~~-------------------------------------------------|

==================================================================
==================================================================


Pre Chorus

Guitar 2
D-----3~~-2~~~~~~~~~~-3~~-2~~~~~~~~~~-3~~-2~~~~~~~~~~-3~~-2~~~~~~-|
A-----------------------------0~~~~~~~~~~~~~~~~~~~~~~~~~~~~~~~0~~-|
F-5~~~~~~~~~~~~~~~~~~~~~~~~~~~~~~-5~~~~~~~~~~~~~~~~~~~~~~~~~~~~~~-
C-----------------------------------------------------------------|
G-----------------------------------------------------------------|
C-----------------------------------------------------------------|

Guitar 3
D-----------------------------------------------------------------|
A----------------0~~~~~~~~~~~~~~~~~~~~~~~~~~~~~~-0~~~~~~~~~~~~~~~-|
F-----------------------------------------------------------------|
C-----------------------------------------------------------------|
G-0~~~~~~~~~~~~~~~~~~~~~~~~~~~~~~-3~~~~~~~~~~~~~~~~~~~~~~~~~~~~~~-
C-----------------------------------------------------------------

==================================================================

Guitar 1
D-----------------------------------------------------------------|
A-----------------------------------------------------------------|
F---------------------------------5---5---5---5---7---7---7---7---|
C---------------------------------5---5---5---5---7---7---7---7---|
G---------------------------------3---3---3---3---5---5---5---5---|
C-----------------------------------------------------------------|
pm                                .   .   .   .   .   .

Guitar 2
D-----3~~-2~~~~~~~~~~-3~~-2~~~~~~~~~~-3~~-2~~~~~~~~~~-3~~-2~~~~~~-|
A-----------------------------0~~~~~~~~~~~~~~~~~~~~~~~~~~~~~~~0~~-|
F-5~~~~~~~~~~~~~~~~~~~~~~~~~~~~~~-5~~~~~~~~~~~~~~~~~~~~~~~~~~~~~~-
C-----------------------------------------------------------------|
G-----------------------------------------------------------------|
C-----------------------------------------------------------------|

Guitar 3
D-----------------------------------------------------------------|
A----------------0~~~~~~~~~~~~~~~~~~~~~~~~~~~~~~-0~~~~~~~~~~~~~~~-|
F-----------------------------------------------------------------|
C-----------------------------------------------------------------|
G-0~~~~~~~~~~~~~~~~~~~~~~~~~~~~~~-3~~~~~~~~~~~~~~~~~~~~~~~~~~~~~~-
C-----------------------------------------------------------------

==================================================================
==================================================================


Chorus 1

(x2)

Guitar 1 & 2
D-----------------------------------------------------------------|
A-----------------------------------------------------------------|
F-----------------------------------------------------------------|
C-2~~-2~~-x-x---x-2~~-2~~-x-x---x-0~~-0~~-x-x---x-0~~-0~~-x-x---x-|
G-2~~-2~~-x-x---x-2~~-2~~-x-x---x-0~~-0~~-x-x---x-0~~-0~~-x-x---x-|
C-2~~-2~~-x-x---x-2~~-2~~-x-x---x-0~~-0~~-x-x---x-0~~-0~~-x-x---x-|

==================================================================

Guitar 1 & 2
D-----------------------------------------------------------------|
A-----------------------------------------------------------------|
F-5~~-5~~---------5~~-5~~---------7~~-7~~-------------------------|
C-5~~-5~~-x-x---x-5~~-5~~-x-x---x-7~~-7~~-x-x---x-----------------|
G-3~~-3~~-x-x---x-3~~-3~~-x-x---x-5~~-5~~-x-x---x-----------------|
C---------x-x---x---------x-x---x---------x-x---x-4-5-4-0-7-5-4-0-|

==================================================================
==================================================================


Bridge 1

Guitar 1 & 2
D-----------------------------------------------------------------|
A-----------------------------------------------------------------|
F-----------------------------------------------------------------|
C-----------------------------------------------------------------|
G-------------3-2-----------------------------3-2-----------------|
C-5-2-0~~-2~~-----0~~-2~~-5-2-0~~-5-2-0~~-2~~-----0~~-2~~-5-2-0~~-|

==================================================================

Guitar 1 & 2
D-----------------------------------------------------------------|
A-----------------------------------------------------------------|
F-----------------------------------------------------------------|
C-------------------------------------------------5~~~~~~-0~~~~~~-|
G-------------3-2-----------------------------3-2-5~~~~~~-0~~~~~~-|
C-5-2-0~~-2~~-----0~~-2~~-5-2-0~~-5-2-0~~-2~~-----5~~~~~~-0~~~~~~-|

==================================================================
==================================================================


Bridge 2

Guitar 1
D-----------------------------------------------------------------|
A-----------------------------------------------------------------|
F-----------------------------------------------------------------|
C-5~~~~~~~~~~~~~~~~~~~~~~~~~~~~~~~~~~~~~~~~~~~~~~~~~~~~~~~~~~~~~~-
G-5~~~~~~~~~~~~~~~~~~~~~~~~~~~~~~~~~~~~~~~~~~~~~~~~~~~~~~~~~~~~~~-
C-5~~~~~~~~~~~~~~~~~~~~~~~~~~~~~~~~~~~~~~~~~~~~~~~~~~~~~~~~~~~~~~-

Guitar 2
D-----------------------------------------------------------------------|
A-----12--12-12-12--12--8---8---8---8---10--10--10--10--10--10--10--10--|
F-----------------------------------------------------------------------|
C-----------------------------------------------------------------------|
G-----------------------------------------------------------------------|
C-----------------------------------------------------------------------|

Guitar 3
D-----------------------------------------------------------------|
A-----------------------------------------------------------------|
F---------0~~~~~~~~~~~~~~-0~~~~~~~~~~~~~~-0~~~~~~~~~~~~~~-0~~~~~~-|
C-----4~~~~~~-4~~~~~~-4~~~~~~-4~~~~~~-4~~~~~~-4~~~~~~-4~~~~~~-4~~-|
G-----------------3~~~~~~~~~~~~~~-2~~~~~~~~~~~~~~-2~~~~~~~~~~~~~~-|
C-2~~~~~~~~~~~~~~-------------------------------------------------|

==================================================================

Guitar 2
D-----------------------------------------------------------------|
A-10--12--12--12--12--8---8---8---8---10--10--10--10--7---7---8---|
F-----------------------------------------------------------------|
C-----------------------------------------------------------------|
G-----------------------------------------------------------------|
C-----------------------------------------------------------------|

Guitar 3
D-----------------------------------------------------------------|
A-------------------------------------------------0~~~~~~~~~~~~~~-|
F---------0~~~~~~~~~~~~~~-0~~~~~~~~~~~~~~-0~~~~~~~~~~-0~~~~~~-0~~-|
C-----4~~~~~~-4~~~~~~-4~~~~~~-4~~~~~~-4~~~~~~-4~~~~~~~~~~-4~~~~~~-|
G-----------------3~~~~~~~~~~~~~~-2~~~~~~~~~~~~~~-2~~~~~~~~~~~~~~-|
C-2~~~~~~~~~~~~~~-------------------------------------------------|

==================================================================
==================================================================


Verse 2

(x2)

Guitar 3
D-----------------------------------------------------------------|
A-----------------------------------------------------------------|
F---------0~~~~~~~~~~~~~~-0~~~~~~~~~~~~~~-0~~~~~~~~~~~~~~-0~~~~~~-|
C-----4~~~~~~-4~~~~~~-4~~~~~~-4~~~~~~-4~~~~~~-4~~~~~~-4~~~~~~-4~~-|
G-----------------3~~~~~~~~~~~~~~-2~~~~~~~~~~~~~~-2~~~~~~~~~~~~~~-|
C-2~~~~~~~~~~~~~~-------------------------------------------------|

==================================================================

Guitar 3
D-----------------------------------------------------------------|
A-------------------------------------------------0~~~~~~~~~~~~~~-|
F---------0~~~~~~~~~~~~~~-0~~~~~~~~~~~~~~-0~~~~~~~~~~-0~~~~~~-0~~-|
C-----4~~~~~~-4~~~~~~-4~~~~~~-4~~~~~~-4~~~~~~-4~~~~~~~~~~-4~~~~~~-|
G-----------------3~~~~~~~~~~~~~~-2~~~~~~~~~~~~~~-2~~~~~~~~~~~~~~-|
C-2~~~~~~~~~~~~~~-------------------------------------------------|

==================================================================
==================================================================


Pre Chorus

Guitar 2
D-----3~~-2~~~~~~~~~~-3~~-2~~~~~~~~~~-3~~-2~~~~~~~~~~-3~~-2~~~~~~-|
A-----------------------------0~~~~~~~~~~~~~~~~~~~~~~~~~~~~~~~0~~-|
F-5~~~~~~~~~~~~~~~~~~~~~~~~~~~~~~-5~~~~~~~~~~~~~~~~~~~~~~~~~~~~~~-
C-----------------------------------------------------------------|
G-----------------------------------------------------------------|
C-----------------------------------------------------------------|

Guitar 3
D-----------------------------------------------------------------|
A----------------0~~~~~~~~~~~~~~~~~~~~~~~~~~~~~~-0~~~~~~~~~~~~~~~-|
F-----------------------------------------------------------------|
C-----------------------------------------------------------------|
G-0~~~~~~~~~~~~~~~~~~~~~~~~~~~~~~-3~~~~~~~~~~~~~~~~~~~~~~~~~~~~~~-
C-----------------------------------------------------------------

==================================================================

Guitar 1
D-----------------------------------------------------------------|
A-----------------------------------------------------------------|
F---------------------------------5---5---5---5---7---7---7---7---|
C---------------------------------5---5---5---5---7---7---7---7---|
G---------------------------------3---3---3---3---5---5---5---5---|
C-----------------------------------------------------------------|
pm                                .   .   .   .   .   .

Guitar 2
D-----3~~-2~~~~~~~~~~-3~~-2~~~~~~~~~~-3~~-2~~~~~~~~~~-3~~-2~~~~~~-|
A-----------------------------0~~~~~~~~~~~~~~~~~~~~~~~~~~~~~~~0~~-|
F-5~~~~~~~~~~~~~~~~~~~~~~~~~~~~~~-5~~~~~~~~~~~~~~~~~~~~~~~~~~~~~~-
C-----------------------------------------------------------------|
G-----------------------------------------------------------------|
C-----------------------------------------------------------------|

Guitar 3
D-----------------------------------------------------------------|
A----------------0~~~~~~~~~~~~~~~~~~~~~~~~~~~~~~-0~~~~~~~~~~~~~~~-|
F-----------------------------------------------------------------|
C-----------------------------------------------------------------|
G-0~~~~~~~~~~~~~~~~~~~~~~~~~~~~~~-3~~~~~~~~~~~~~~~~~~~~~~~~~~~~~~-
C-----------------------------------------------------------------

==================================================================
==================================================================


Chorus 1

(x2)

Guitar 1 & 2
D-----------------------------------------------------------------|
A-----------------------------------------------------------------|
F-----------------------------------------------------------------|
C-2~~-2~~-x-x---x-2~~-2~~-x-x---x-0~~-0~~-x-x---x-0~~-0~~-x-x---x-|
G-2~~-2~~-x-x---x-2~~-2~~-x-x---x-0~~-0~~-x-x---x-0~~-0~~-x-x---x-|
C-2~~-2~~-x-x---x-2~~-2~~-x-x---x-0~~-0~~-x-x---x-0~~-0~~-x-x---x-|

==================================================================

Guitar 1 & 2
D-----------------------------------------------------------------|
A-----------------------------------------------------------------|
F-5~~-5~~---------5~~-5~~---------7~~-7~~-------------------------|
C-5~~-5~~-x-x---x-5~~-5~~-x-x---x-7~~-7~~-x-x---x-----------------|
G-3~~-3~~-x-x---x-3~~-3~~-x-x---x-5~~-5~~-x-x---x-----------------|
C---------x-x---x---------x-x---x---------x-x---x-4-5-4-0-7-5-4-0-|

==================================================================
==================================================================


Interlude 1

Guitar 1
D-----------------------------------------------------------------|
A-----------------5~~~~~~~~~~~~~~~~~~-------------3~~~~~~~~~~~~~~-|
F-----------------4~~~~~~~~~~~~~~~~~~-------------2~~~~~~~~~~~~~~-|
C-2~~~~~~~~~~~~~~-2~~~~~~~~~~-2~~~~~~-0~~-0~~~~~~-0~~~~~~~~~~~~~~-|
G-2~~~~~~~~~~~~~~-2~~~~~~~~~~-2~~~~~~-0~~-0~~~~~~-0~~~~~~~~~~~~~~-|
C-2~~~~~~~~~~~~~~-2~~~~~~~~~~-2~~~~~~-0~~-0~~~~~~-0~~~~~~~~~~~~~~-|

Guitar 2
D-----------------------------------------------------------------|
A-----------------------------------------------------------------|
F-9~~~~~~~~~~~~~~-9~~~~~~~~~~-9~~~~~~-11~-11~~~~~-11~-12~-11~-12~-|
C-x---------------x-----------x-------x---x-------x---x---x---x---|
G-7~~~~~~~~~~~~~~-7~~~~~~~~~~-7~~~~~~-9~~-9~~~~~~-9~~-10~-9~~-10~-|
C-----------------------------------------------------------------|

==================================================================

Guitar 1
D-----------------3~~~~~~~~~~~~~~~~~~-------------5~~~~~~---------|
A-----------------3~~~~~~~~~~~~~~~~~~-------------5~~~~~~---------|
F-5~~~~~~~~~~~~~~-5~~~~~~~~~~-5~~~~~~-7~~-7~~~~~~-7~~~~~~---------|
C-5~~~~~~~~~~~~~~-5~~~~~~~~~~-5~~~~~~-7~~-7~~~~~~-7~~~~~~---------|
G-3~~~~~~~~~~~~~~-3~~~~~~~~~~-3~~~~~~-5~~-5~~~~~~-5~~~~~~---------|
C---------------------------------------------------------5~~-4~~-|

Guitar 2
D-----------------------------------------------------------------|
A-----------------------------------------------------------------|
F-9~~~~~~~~~~~~~~-9~~~~~~~~~~-9~~~~~~-11~-11~~~~~-11~~~~~~~~~~~~~-|
C-x---------------x-----------x-------x---x-------x---------------|
G-7~~~~~~~~~~~~~~-7~~~~~~~~~~-7~~~~~~-9~~-9~~~~~~-9~~~~~~~~~~~~~~-|
C-----------------------------------------------------------------|

==================================================================

Guitar 1
D-----------------------------------------------------------------|
A-----------------5~~~~~~~~~~~~~~~~~~-------------3~~~~~~~~~~~~~~-|
F-----------------4~~~~~~~~~~~~~~~~~~-------------2~~~~~~~~~~~~~~-|
C-2~~~~~~~~~~~~~~-2~~~~~~~~~~-2~~~~~~-0~~-0~~~~~~-0~~~~~~~~~~~~~~-|
G-2~~~~~~~~~~~~~~-2~~~~~~~~~~-2~~~~~~-0~~-0~~~~~~-0~~~~~~~~~~~~~~-|
C-2~~~~~~~~~~~~~~-2~~~~~~~~~~-2~~~~~~-0~~-0~~~~~~-0~~~~~~~~~~~~~~-|

Guitar 2
D-----------------------------------------------------------------|
A-----------------------------------------------------------------|
F-12~~~~~~~~~~~~~~~~~~~~~~~~~-12~~~~~-11~-11~~~~~~~~~~~~~~~-11-12-|
C-----------------------------------------------------------------|
G-----------------------------------------------------------------|
C-----------------------------------------------------------------|

==================================================================

Guitar 1
D-----------------3~~~~~~~~~~~~~~~~~~-------------5~~~~~~---------|
A-----------------3~~~~~~~~~~~~~~~~~~-------------5~~~~~~---------|
F-5~~~~~~~~~~~~~~-5~~~~~~~~~~-5~~~~~~-7~~-7~~~~~~-7~~~~~~---------|
C-5~~~~~~~~~~~~~~-5~~~~~~~~~~-5~~~~~~-7~~-7~~~~~~-7~~~~~~---------|
G-3~~~~~~~~~~~~~~-3~~~~~~~~~~-3~~~~~~-5~~-5~~~~~~-5~~~~~~---------|
C---------------------------------------------------------5~~-4~~-|

Guitar 2
D-----------------------------------------------------------------|
A-----------------------------------------------------------------|
F-14~~~~~~~~~-12~-11~~~-12~~~-14~---------------------------------|
C---------------------------------12~~~~~~~~~~~~~~~~~~~~~~\~~~~~~-|
G-----------------------------------------------------------------|
C-----------------------------------------------------------------|

==================================================================
==================================================================


Break Off

Guitar 1
D-----------------------------------------------------------------|
A-----------------------------------------------------------------|
F-----------------------------------------------------------------|
C-----------------------------------------------------------------|
G-------------------------3-3-------------------------------------|
C-2-2-0-0-5-5-2-2-2-2-0-0-----3-3-2-2-0-0-5-5-2-2-2-2-0-0-1-1-1-1-|
pm. . . . . . . . . . . . . . . . . . . . . . . . . . . . . .

==================================================================

Guitar 1
D-----------------------------------------------------------------|
A-----------------------------------------------------------------|
F-----------------------------------------------------------------|
C---------------------------------------------------------x-x-----|
G-------------------------3-3-----------------------------x-x-----|
C-2-2-0-0-5-5-2-2-2-2-0-0-----3-3-2-2-0-0-5-5-2-2-2-2-0-0-x-x-----|

Guitar 2
D-----------------------------------------------------------------|
A-----------------------------------------------------------------|
F-9~~~~~~~~~~~~~~~~~~~~~~~~~~~~~~~~~~~~~~~~~~~~~~~~~~~~~~---------|
C---------------------------------------------------------x-x-----|
G---------------------------------------------------------x-x-----|
C---------------------------------------------------------x-x-----|

==================================================================
==================================================================


Guitar Solo

Guitar 1
D-----------------------------------------------------------------|
A-----------------------------------------------------------------|
F-------------------------5-5-------------------------------------|
C-2-2-0-0-5-5-2-2-2-2-0-0-5-5-3-3-2-2-0-0-5-5-2-2-2-2-0-0-1-1-1-1-|
G-2-2-0-0-5-5-2-2-2-2-0-0-3-3-3-3-2-2-0-0-5-5-2-2-2-2-0-0-1-1-1-1-|
C-2-2-0-0-5-5-2-2-2-2-0-0-----3-3-2-2-0-0-5-5-2-2-2-2-0-0-1-1-1-1-|

Guitar 2 (x2)
D-15-17-15----------15-19p17p15----------|
A----------17-15-17-------------17-15-17-|
F----------------------------------------|
C----------------------------------------|
G----------------------------------------|
C----------------------------------------|

Guitar 2 continued
D----------------------------------------|
A-15-17-15----------15-18p17p15----------|
F----------16-14-16-------------16-14-16-|
C----------------------------------------|
G----------------------------------------|
C----------------------------------------|

Guitar 2 continued
D----------------------------------------|
A-15-17-15----------15-19p17p15----------|
F----------16-14-16-------------16-14-16-|
C----------------------------------------|
G----------------------------------------|
C----------------------------------------|


==================================================================

Guitar 1
D-----------------------------------------------------------------|
A-----------------------------------------------------------------|
F-------------------------5-5-------------------------------------|
C-2-2-0-0-5-5-2-2-2-2-0-0-5-5-3-3-2-2-0-0-5-5-2-2-2-2-0-0-x-x-x-x-|
G-2-2-0-0-5-5-2-2-2-2-0-0-3-3-3-3-2-2-0-0-5-5-2-2-2-2-0-0-x-x-x-x-|
C-2-2-0-0-5-5-2-2-2-2-0-0-----3-3-2-2-0-0-5-5-2-2-2-2-0-0-x-x-x-x-|

Guitar 2 (x2)
D----------------------------------------|
A-12-15-12----------12-17p15p12----------|
F----------14-12-14-------------14-12-14-|
C----------------------------------------|
G----------------------------------------|
C----------------------------------------|

Guitar 2 continued
D----------------------------------------|
A-15-17-15----------15-18p17p15----------|
F----------16-14-16-------------16-14-16-|
C----------------------------------------|
G----------------------------------------|
C----------------------------------------|

Guitar 2 continued
D-------------------15h17-15h17-15h17-|
A-15h18-15h19-17h20-------------------|
F-------------------------------------|
C-------------------------------------|
G-------------------------------------|
C-------------------------------------|

==================================================================
==================================================================


Chorus 1

Guitar 1
D-----------------------------------------------------------------|
A-----------------------------------------------------------------|
F-----------------------------------------------------------------|
C-2~~-2~~-x-x---x-2~~-2~~-x-x---x-0~~-0~~-x-x---x-0~~-0~~-x-x---x-|
G-2~~-2~~-x-x---x-2~~-2~~-x-x---x-0~~-0~~-x-x---x-0~~-0~~-x-x---x-|
C-2~~-2~~-x-x---x-2~~-2~~-x-x---x-0~~-0~~-x-x---x-0~~-0~~-x-x---x-|

Guitar 2
D-19~~~~~~~~~~~~~~~~~~~~-19p17p15---------------------------------|
A---------------------------------17--15~~~~~~~~~~~~~~~~~~~~~~\~~-|
F-----------------------------------------------------------------|
C-----------------------------------------------------------------|
G-----------------------------------------------------------------|
C-----------------------------------------------------------------|

==================================================================

Guitar 1 & 2
D-----------------------------------------------------------------|
A-----------------------------------------------------------------|
F-5~~-5~~---------5~~-5~~---------7~~-7~~-------------------------|
C-5~~-5~~-x-x---x-5~~-5~~-x-x---x-7~~-7~~-x-x---x-----------------|
G-3~~-3~~-x-x---x-3~~-3~~-x-x---x-5~~-5~~-x-x---x-----------------|
C---------x-x---x---------x-x---x---------x-x---x-4-5-4-0-7-5-4-0-|

==================================================================

Guitar 1 & 2
D-----------------------------------------------------------------|
A-----------------------------------------------------------------|
F-----------------------------------------------------------------|
C-2~~-2~~-x-x---x-2~~-2~~-x-x---x-0~~-0~~-x-x---x-0~~-0~~-x-x---x-|
G-2~~-2~~-x-x---x-2~~-2~~-x-x---x-0~~-0~~-x-x---x-0~~-0~~-x-x---x-|
C-2~~-2~~-x-x---x-2~~-2~~-x-x---x-0~~-0~~-x-x---x-0~~-0~~-x-x---x-|

==================================================================

Guitar 1 & 2
D-----------------------------------------------------------------|
A-----------------------------------------------------------------|
F-5~~-5~~---------5~~-5~~---------7~~-7~~-------------------------|
C-5~~-5~~-x-x---x-5~~-5~~-x-x---x-7~~-7~~-x-x---x-----------------|
G-3~~-3~~-x-x---x-3~~-3~~-x-x---x-5~~-5~~-x-x---x-----------------|
C---------x-x---x---------x-x---x---------x-x---x-4-5-4-0-7-5-4-0-|

==================================================================
==================================================================


Chorus 2

(x2)

Guitar 1
D-----------------------------------------------------------------|
A-----------------5~~~~~~~~~~~~~~~~~~-------------3~~~~~~~~~~~~~~-|
F-----------------4~~~~~~~~~~~~~~~~~~-------------2~~~~~~~~~~~~~~-|
C-2~~~~~~~~~~~~~~-2~~~~~~~~~~-2~~~~~~-0~~-0~~~~~~-0~~~~~~~~~~~~~~-|
G-2~~~~~~~~~~~~~~-2~~~~~~~~~~-2~~~~~~-0~~-0~~~~~~-0~~~~~~~~~~~~~~-|
C-2~~~~~~~~~~~~~~-2~~~~~~~~~~-2~~~~~~-0~~-0~~~~~~-0~~~~~~~~~~~~~~-|

Guitar 2
D-----------------------------------------------------------------|
A-----------------------------------------------------------------|
F-9~~~~~~~~~~~~~~-9~~~~~~~~~~-9~~~~~~-11~-11~~~~~-11~-12~-11~-12~-|
C-x---------------x-----------x-------x---x-------x---x---x---x---|
G-7~~~~~~~~~~~~~~-7~~~~~~~~~~-7~~~~~~-9~~-9~~~~~~-9~~-10~-9~~-10~-|
C-----------------------------------------------------------------|

==================================================================

Guitar 1
D-----------------3~~~~~~~~~~~~~~~~~~-------------5~~~~~~---------|
A-----------------3~~~~~~~~~~~~~~~~~~-------------5~~~~~~---------|
F-5~~~~~~~~~~~~~~-5~~~~~~~~~~-5~~~~~~-7~~-7~~~~~~-7~~~~~~---------|
C-5~~~~~~~~~~~~~~-5~~~~~~~~~~-5~~~~~~-7~~-7~~~~~~-7~~~~~~---------|
G-3~~~~~~~~~~~~~~-3~~~~~~~~~~-3~~~~~~-5~~-5~~~~~~-5~~~~~~---------|
C---------------------------------------------------------5~~-4~~-|

Guitar 2
D-----------------------------------------------------------------|
A-----------------------------------------------------------------|
F-9~~~~~~~~~~~~~~-9~~~~~~~~~~-9~~~~~~-11~-11~~~~~-11~~~~~~~~~~~~~-|
C-x---------------x-----------x-------x---x-------x---------------|
G-7~~~~~~~~~~~~~~-7~~~~~~~~~~-7~~~~~~-9~~-9~~~~~~-9~~~~~~~~~~~~~~-|
C-----------------------------------------------------------------|

==================================================================
==================================================================


Outro

Guitar 1 & 2
D-----------------------------------------------------------------|
A-----------------------------------------------------------------|
F-----------------------------------------------------------------|
C-----------------------------------------------------------------|
G-------------3-2-----------------------------3-2-----------------|
C-5-2-0~~-2~~-----0~~-2~~-5-2-0~~-5-2-0~~-2~~-----0~~-2~~-5-2-0~~-|

==================================================================

Guitar 1 & 2
D-----------------------------------------------------------------|
A-----------------------------------------------------------------|
F-----------------------------------------------------------------|
C-----------------------------------------------------------------|
G-------------3-2-----------------------------3-2-----------------|
C-5-2-0~~-2~~-----0~~-2~~-5-2-0~~-5-2-0~~-2~~-----0~~-2~~-5-2-----|

==================================================================
==================================================================
==================================================================


Tab Legend
h  -  hammer-on
p  -  pull-off
/  -  slide up
\  -  slide down
ps/-  pickslide up
ps\-  pickslide down
~  -  let ring
pm.-  palm mute
b  -  bend
r  -  return from bend
*  -  harmonic
x  -  dead note
^  -  Whammy bar
^\ -  Whammy bar (hold down)

That's all of it. I hope it helped, and if you've got any problem, be sure to check out
my cover. Thanks, oh and one last thing... ROCK OUT!!!!
Добавлено: 31.05.2012
Другие материалы по этой песне:
  • Аккорды и текст

Страница создана 31.05.2012
http://primanota.ru/evans-blue/halo-chords.htm
Привет, Гость.
Предлагаем пройти революционный курс по гитаре.
Подарок от PrimaNota.Ru, забирай!