PrimaNota.ru - самый крупный в мире бесплатный архив песенных текстов, аккордов, табулатур и нот


Evans Blue - Eclipsed - текст песни, таба, бас-таба, видео

Регистрация Запомнить меня
Войти через:  Facebook Google Twitter Vk Yandex Mail.ru

Evans Blue - Eclipsed - текст песни, таба, бас-таба, видео

Печатать
Просмотров: 254
Ok this is my first tab and I hope you all enjoy

Artist - Evans blue
Song   - Eclipsed

Tuning - C G C F Ab Db

Guitar 1 - C G C F Ab Db - Rhythm
Guitar 2 - C G C F Ab Db - Lead

Tuning - C G C F Ab Db

Intro: GUITAR 1 Rhythm
Repeat 6x

  Db|-----------------------------------------------------------------------|
  Ab|-----7-----7----------7-----7----------8-----8----------5-----5--------|
   F|---10----10----10---10----10----10---10----10----10---10----10----10---|
   C|--8-----8-----8----8-----8-----8----8-----8-----8----6-----6-----6-----|
   G|-----------------------------------------------------------------------|
   C|-----------------------------------------------------------------------|


Intro: Guitar 2 Lead
 Repeat 4x

 Db|--------------------------------------------------|----------------------|
 Ab|--------------------------------------------------|----------------------|
 F |---18--10-11-10----15--17--18----10-11-10--15-----|-10-11-10--10-11-10---|
 C |--------------------------------------------------|----------------------|
 G |--------------------------------------------------|----------------------|
 C |--------------------------------------------------|----------------------|

____________________________________________________________________________

Verse: Guitar 1 Rhythm

 Db|----------------------------------------------------------------------|
 Ab|----------------------------------------------------------------------|
 F |----------------------------------------------------------------------|
 C |-8-8-8-8----11-11-11-11----6-6-6-6----6-6-6-6-------------------------|
 G |-8-8-8-8----11-11-11-11----6-6-6-6----6-6-6-6-------------------------|
 C |-8-8-8-8----11-11-11-11----6-6-6-6----6-6-6-6-------------------------|


Guitar 2 Lead

       00:45        --          00:56      --      00:58   -     01:10-------|
 Db|-------------------------------------------------------------------------|
 Ab|----HM--PL--HM--PL-----------------------HM--PL--HM--PL------------------|
 F |--10--11--10--11--10---|--8-6-5-3---|--10--11--10--11--10--|---8-6-5-3---|
 C |-------------------------------------------------------------------------|
 G |-------------------------------------------------------------------------|
 C |-------------------------------------------------------------------------|

____________________________________________________________________________

Guitar 1 - Repeat intro 6-7 times, just listen to the song, you'll figure it out.


Guitar 2
          Reapet 3x
 Db|------------------------------------------------------------------------|
 Ab|------------------------------------------------------------------------|
 F |--18--10-11-10--15--17--18-|--10-11--20-17-|--18--10-11-10-15--17--18---|
 C |------------------------------------------------------------------------|
 G |------------------------------------------------------------------------|
 C |------------------------------------------------------------------------|

 Db|-----------------------------------------------------------------------|
 Ab|-----------------------------------------------------------------------|
 F |--10-11--20-17------|-10-11-10--10-11-10-------------------------------|
 C |-----------------------------------------------------------------------|
 G |-----------------------------------------------------------------------|
 C |-----------------------------------------------------------------------|

____________________________________________________________________________


Verse: Guitar 1

 Db|-----------------------------------------------------------------------|
 Ab|-----------------------------------------------------------------------|
 F |-----------------------------------------------------------------------|
 C |-8-8-8-8----11-11-11-11----6-6-6-6----6-6-6-6--------------------------|
 G |-8-8-8-8----11-11-11-11----6-6-6-6----6-6-6-6--------------------------|
 C |-8-8-8-8----11-11-11-11----6-6-6-6----6-6-6-6--------------------------|


 Guitar 2

    01:53, 01:57      --      02:08     --        02:10      --    02:22-----|
 Db|-------------------------------------------------------------------------|
 Ab|----HM--PL--HM--PL-----------------------HM--PL--HM--PL------------------|
 F |--10--11--10--11--10---|--8-6-5-3---|--10--11--10--11--10--|---8-6-5-3---|
 C |-------------------------------------------------------------------------|
 G |-------------------------------------------------------------------------|
 C |-------------------------------------------------------------------------|

____________________________________________________________________________

I know im missing a couple of notes.

Bridge: Gutiar 2

                   2x
 Db|------------------------------------------------------------------------|
 Ab||--15-15-14-14-----15-15-14-14------15-15-14-14-15-15-17-17-15-15-14-14-|
 F ||------------13-13-----------13-13--------------------------------------|
 C |------------------------------------------------------------------------|
 G |------------------------------------------------------------------------|
 C |------------------------------------------------------------------------|


 Db|-----------------------------------------------------------------------|
 Ab|-12-12|----------------------------------------------------------------|
 F |------|----------------------------------------------------------------|
 C |-----------------------------------------------------------------------|
 G |-----------------------------------------------------------------------|
 C |-----------------------------------------------------------------------|

____________________________________________________________________________

Outro: Guitar 1

  Repeat 4x

 Db|------------------------------------------------------------------------|
 Ab|------------------------------------------------------------------------|
 F |------------------------------------------------------------------------|
 C |-8-8-8-8--8-8-8-8---4-4-4-4---6-6-6-6-----------------------------------|
 G |-8-8-8-8--8-8-8-8---4-4-4-4---6-6-6-6-----------------------------------|
 C |-8-8-8-8--8-8-8-8---4-4-4-4---6-6-6-6-----------------------------------|


  Repeat 2x

 Db|-----------------------------------------------------------------------|
 Ab|-----------------------------------------------------------------------|
 F |-----------------------------------------------------------------------|
 C |-8-8-8-8--11-11-11-11--6-6-6-6--6-6-6-6--------------------------------|
 G |-8-8-8-8--11-11-11-11--6-6-6-6--6-6-6-6--------------------------------|
 C |-8-8-8-8--11-11-11-11--6-6-6-6--6-6-6-6--------------------------------|


 Repeat 2x


    Also on the second time palm mute the last four 6s and slide from 17 back down to 
  you'll know what im talkin about when you listen the song.
                                    . . . .
 Db|-----------------------------------------------------------------------|
 Ab|-----------------------------------------------------------------------|
 F |-----------------------------------------------------------------------|
 C |-8-8-8-8--11-11-11-11--6-6-6-6--6-6-6-6--------------------------------|
 G |-8-8-8-8--11-11-11-11--6-6-6-6--6-6-6-6--------------------------------|
 C |-8-8-8-8--11-11-11-11--6-6-6-6--6-6-6-6--------------------------------|

Guitar 2

 repeat 16 times       I'm not sure what notes you end on.

 Db-----------------|----------7-------------------------------------------|
 Ab-----7----7----7-|-----7-10---------------------------------------------|
 F----10---10---10--|---10-------------------------------------------------|
 C---8----8----8----|--8---------------------------------------------------|
 G------------------|------------------------------------------------------|
 C------------------|------------------------------------------------------|

HM - Hammer on
PL - Pull off
.  - palm mute
Добавлено: 24.03.2012
Другие материалы по этой песне:
  • Аккорды и текст

Страница создана 23.03.2012
http://primanota.ru/evans-blue/eclipsed-chords.htm
Привет, Гость.
Предлагаем пройти революционный курс по гитаре.
Подарок от PrimaNota.Ru, забирай!