PrimaNota.ru - самый крупный в мире бесплатный архив песенных текстов, аккордов, табулатур и нот


Evans Blue - Dark That Follows - текст песни, таба, видео

Регистрация Запомнить меня
Войти через:  Facebook Google Twitter Vk Yandex Mail.ru

Evans Blue - Dark That Follows - текст песни, таба, видео

Печатать
Просмотров: 207
Tuning: Standard

Intro Guitar I |0:05 – 0:31| 2x
e|-------------------------------------------------------------------------|
B|-------------------------------------------------------------------------|
G|-------------------------------------------------------------------------|
D|-11---6666-8—-88-6---66-666-8--88-6-666----------------------------------|
A|-11---6666-8—-88-6---66-666-8--88-6-666----------------------------------|
E|-9----4444-6—-66-4---44-444-6--66-4-444----------------------------------|

Solo Guitar II |0:31 – 0:51| 4x
e|-------------------------------------------------------------------------|
B|-------------------------------------------------------------------------|
G|-------6-7-6-6h7p6----------6-7-6h7p6------------------------------------|
D|----777-----------7------777---------7-----------------------------------|
A|-999------------------999------------------------------------------------|
E|-------------------------------------------------------------------------|

Guitar I |0:52 – 1:03| 2x
e|-------------------------------------------------------------------------|
B|-------------------------------------------------------------------------|
G|-------------------------------------------------------------------------|
D|-10\-99999-10\-99999-10\-99999-10\-9\-7777/-9/---------------------------|
A|-10\-99999-10\-99999-10\-99999-10\-9\-7777/-9/---------------------------|
E|-8\--77777-8\--77777-8\--77777-8\--7\-5555/-7/---------------------------|

Guitar II |0:52 – 1:03| 2x
e|-------------------------------------------------------------------------|
B|-6h7p6-6--6h7p6-6--6h7p6—6-6h7p6-6h7-9p7p6---6h7p6-6---------------------|
G|------8--------8--------8-------8---------8-------8----------------------|
D|-------------------------------------------------------------------------|
A|-------------------------------------------------------------------------|
E|-------------------------------------------------------------------------|

Pre-Chorus Guitar II |1:23 – 1:38| 6x
e|-------------------------------------------------------------------------|
B|-9p6-6-6-6-9p6--6--------------------------------------------------------|
G|--------8------8-8p6-----------------------------------------------------|
D|-------------------------------------------------------------------------|
A|-------------------------------------------------------------------------|
E|-------------------------------------------------------------------------|

| /  slide up
| \  slide down
| h  hammer-on
| p  pull-off
| ~  vibrato
| +  harmonic
| x  Mute note
Добавлено: 22.03.2012
Другие материалы по этой песне:
  • Аккорды и текст

Страница создана 22.03.2012
http://primanota.ru/evans-blue/dark-that-follows-chords.htm
Привет, Гость.
Предлагаем пройти революционный курс по гитаре.
Подарок от PrimaNota.Ru, забирай!