PrimaNota.ru - самый крупный в мире бесплатный архив песенных текстов, аккордов, табулатур и нот


Evans Blue - Bend - текст песни, таба, видео

Регистрация Запомнить меня
Войти через:  Facebook Google Twitter Vk Yandex Mail.ru

Evans Blue - Bend - текст песни, таба, видео

Печатать
Просмотров: 121
Intro/verse
tuned in drop C# 
(C# G# C# F# A# D#)

/ = slide up
\ = slide down

Hard to hear guitar part at very beginning
you gotta kinda strum this part to get the rhythm right.
Continues throughout verse
D#|-----3---------------------|
A#|----------5---3------------|
F#|--5----5---------5---------|
C#|---------------------------|
G#|---------------------------|
C#|---------------------------|


main intro/ verse riff
starts on 2nd measure
listen for correct timing
D#|--------------------------------|
A#|--------------------------------|
F#|--------------------------------|
C#|----7-----9-----10--------------|
G#|-7-----7-----7------------------|
C#|--------------------------------|

D#|--------------------------------|
B#|--------------------------------|
F#|----------------2---------------|
C#|----3-----5---------------------|
G#|-3-----3-----3------------------|
C#|--------------------------------|


Chorus

This chord strums in the background of chorus
D#|--------------------------------|
A#|----5---------------------------|
F#|----5---------------------------|
C#|----3---------------------------|
G#|--------------------------------|
C#|--------------------------------|


This is the main chorus riff
listen for correct timing
D#|---------------0-----------------0---------|
A#|-----1----1----------1-----1-------------1-|
F#|-------------------------------------------|
C#|-------------------------------------------|
G#|--3----3----3-----3-----3-----3------3-----|
C#|-------------------------------------------|

D#|---------------0-----------------0---------|
A#|-----1----1----------1-----1-------------1-|
F#|-------------------------------------------|
C#|-------------------------------------------|
G#|--0----0----0-----0-----0-----0------0-----|
C#|-------------------------------------------|

D#|---------------0-----------------0---------|
A#|-----1----1----------1-----1-------------1-|
F#|-------------------------------------------|
C#|--3----3----3-----3-----3-----3------3-----|
G#|-------------------------------------------|
C#|-------------------------------------------|

D#|---------------0-----------------0---------|
A#|-----1----1----------1-----1-------------1-|
F#|-------------------------------------------|
C#|-------------------------------------------|
G#|--3----3----3-----3-----3-----3------3-----|
C#|-------------------------------------------|

play main chorus X2

intro/verse again

chorus again


Small Bridge

Main riff is obviously same as in chorus.
Lead Bridge Guitar:
D#|---15--13--12--12h13--12--------|
A#|--------------------------13----|
F#|--------------------------------|
C#|--------------------------------|
G#|--------------------------------|
C#|--------------------------------|

D#|---15--13--12--12h13--12--12h13--12--|
A#|-------------------------------------|
F#|-------------------------------------|
C#|-------------------------------------|
G#|-------------------------------------|
C#|-------------------------------------|

D#|--------15----13--12---12h13--12------|
A#|--13/15----15---------------------13--|
F#|--------------------------------------|
C#|--------------------------------------|
G#|--------------------------------------|
C#|--------------------------------------|

D#|--------12---------------12-----------|
A#|--13/15----15\13--13/15------15\13----|
F#|--------------------------------------|
C#|--------------------------------------|
G#|--------------------------------------|
C#|--------------------------------------|


Big Bridge


Guitar 1 (rhythm)
D#|-----------------|
A#|-----------------|
F#|-----------------|
C#|----10-----------|
G#|----10-----------|
C#|----10-----------|

Guitar 2 (lead)
D#|-------------------------------------|
A#|-------------------------------------|
F#|--5-----------7----9-----------------|
C#|--X-----------X----X-----------------|
G#|--3-----------5----7-----------------|    X2
C#|-------------------------------------|

Guitar 1 (rhythm)
D#|----------------|
A#|----------------|
F#|----------------|
C#|----7-----------|
G#|----7-----------|
C#|----7-----------|

Guitar 2 (lead)
D#|-------------------------------------|
A#|-------------------------------------|
F#|--14----------9----12----------------|
C#|--X-----------X----X-----------------|
G#|--12----------7----10----------------|    X2
C#|-------------------------------------|

Guitar 1 (rhythm)
D#|----------------|
A#|----------------|
F#|----10----------|
C#|----10----------|
G#|----8-----------|
C#|----------------|

Guitar 2 (lead)
D#|-------------------------------|
A#|-------------------------------|
F#|--10--9---10-------------------|
C#|--X---X---X--------------------|
G#|--8---7---8--------------------|    X2
C#|-------------------------------|

Guitar 1 (rhythm)
D#|-----------------|
A#|-----------------|
F#|-----------------|
C#|----10-----------|
G#|----10-----------|
C#|----10-----------|

Guitar 2 (lead)
D#|-------------------------------------|
A#|-------------------------------------|
F#|--5-----------7----9-----------------|
C#|--X-----------X----X-----------------|
G#|--3-----------5----7-----------------|    X2
C#|-------------------------------------|

For 2nd time around, rhythm guitar doesnt change.

Guitar 2 (lead)

D#|--------------------------------------|
A#|--------------------------------------|
F#|--12-------9--------5--------12-------|
C#|--X--(x8)--X--(x8)--X--(x8)--X---(x8)-|
G#|--10-------7--------3--------10-------|    
C#|--------------------------------------|



3rd Bridge part thing (with the kinda drum solo)
rhythm and lead guitars are exactly the same as previous part
except strum along with the song its not a fast strum.

Outro
(soft clean guitar)

D#|----3-1-0--0-0------3-1-0--0-0-----------|
A#|-----------------------------------------|
F#|-----------------------------------------|
C#|-----------------------------------------|
G#|--3---------------3----------------------|
C#|-----------------------------------------|

D#|----3-1-0--5-0------3-1-0--5-0-----------|
A#|-----------------------------------------|
F#|-----------------------------------------|
C#|-----------------------------------------|
G#|--0---------------0----------------------|
C#|-----------------------------------------|

D#|----3-1-0--5-0------3-1-0--0-0-----------|
A#|-----------------------------------------|
F#|-----------------------------------------|
C#|--3---------------3----------------------|
G#|-----------------------------------------|
C#|-----------------------------------------|

D#|----3-1-0--0--------3-1-0----0-----------|
A#|-------------1-------------1---1---------|
F#|-----------------------------------------|
C#|-----------------------------------------|
G#|--3---------------3----------------------|
C#|-----------------------------------------|


end with 
D#|--3----|
A#|--1----|
F#|--0----|
C#|--2----|
G#|--3----|
C#|-------|

Добавлено: 08.04.2012
Другие материалы по этой песне:
  • Аккорды и текст

Страница создана 08.04.2012
http://primanota.ru/evans-blue/bend-chords.htm
Привет, Гость.
Предлагаем пройти революционный курс по гитаре.
Подарок от PrimaNota.Ru, забирай!