PrimaNota.ru - самый крупный в мире бесплатный архив песенных текстов, аккордов, табулатур и нот


Evans Blue - A Cross And A Girl Named Blessed - текст песни, бас-таба, видео

Регистрация Запомнить меня
Войти через:  Facebook Google Twitter Vk Yandex Mail.ru

Evans Blue - A Cross And A Girl Named Blessed - текст песни, бас-таба, видео

Печатать
Просмотров: 167
Song: A Cross And A Girl Named Blessed
Artist: Evans Blue
Album: The Melody And The Energetic Nature Of Volume
Tuning: Drop C# (C#G#C#F#)

|================================================================================================|

Intro:
F#|-------------------------------|------------------------------|-------------------------------|
C#|-------------------------------|------------------------------|-------------------------------|
G#|-------------------------------|------------------------------|-------------------------------|
C#|-0-0---0-0---0-0--8-8-8-7-8-10-|-0-0---0-0---0-0--8-8-8-7-8-7-|-0-0---0-0---0-0--8-8-8-7-10-7-|

F#|---------------------|
C#|---------------------|
G#|---------------------|
C#|-5-5-5-5-5-8-8-8-8-8-|

Verse: 2x
F#|----------------------------|
C#|----------------------------| -->3x
G#|-----8-7-----10-8-7-8-7-5-7-|
C#|-0-0-----8-7----------------|

F#|---------------------|
C#|---------------------|
G#|---------------------|
C#|-5-5-5-5-5-8-8-8-8-8-|

First Chorus:
F#|-----------------------------------------------|
C#|-----------------------------------------------| -->2x
G#|-----------------------------------------------|
C#|-8-8-8-8-8-8-8-8-8-8-10-10-3-3-3-3-3-2-2-2-2-2-|

F#|-----------------------------------------------------|
C#|-----------------------------------------------------|
G#|-----------------------------------------------------|
C#|-8-8--8-8--8-8--8-8--8-8-8-10-10-3-3-3-3-3-2-2-2-2-2-|

F#|-----------------|
C#|-----------------|
G#|-----------------|
C#|-5-5-5-5-5-5/7-8-|

-->Intro

Second Verse:
F#|----------------------------|
C#|----------------------------| -->3x
G#|-----8-7-----10-8-7-8-7-5-7-|
C#|-0-0-----8-7----------------|

F#|---------------------|
C#|---------------------|
G#|---------------------|
C#|-5-5-5-5-5-8-8-8-8-8-|

F#|----------------------------|
C#|----------------------------| -->3x
G#|-----8-7-----10-8-7-8-7-5-7-|
C#|-0-0-----8-7----------------|

F#|--------------|
C#|--------------|
G#|--------------|
C#|-5----15\-----|

Second Chorus:
F#|-----------------------------------------------|
C#|-----------------------------------------------| -->2x
G#|-----------------------------------------------|
C#|-8-8-8-8-8-8-8-8-8-8-10-10-3-3-3-3-3-2-2-2-2-2-|

F#|-----------------------------------------------------|
C#|-----------------------------------------------------|
G#|-----------------------------------------------------|
C#|-8-8--8-8--8-8--8-8--8-8-8-10-10-3-3-3-3-3-2-2-2-2-2-|

F#|--------------------|
C#|--------------------|
G#|--------------------|
C#|-5-5-5-5-5-5/7-8--3-|

Bridge:
F#|---------------------------|-----------------------|---------------------------|-----------------------|
C#|---------------------------|-----------------------|---------------------------|-----------------------|
G#|---------------------------|-----------------------|---------------------------|-----------------------|
C#|-8-0-8-0-8-0-8-0-7-8-10-10-|-8-0-8-0-8-0-8-0-5-5-5-|-8-0-8-0-8-0-8-0-7-8-10-10-|-8-0-8-0-8-0-8-0-5-5-5-|

F#|-------------------|
C#|-------------------|
G#|-5-------3---------|
C#|-----8-------7--8--|

-->First Chorus
-->Intro

Outro:
F#|---------------------------|-----------------------|
C#|---------------------------|-----------------------| -->2x
G#|---------------------------|-----------------------|
C#|-8-0-8-0-8-0-8-0-7-8-10-10-|-8-0-8-0-8-0-8-0-5-5-5-|

F#|--------------------------------------------------|
C#|--------------------------------------------------|
G#|--------------------------------------------------|
C#|-0---0---0---0---0-0---0---0---0---0--0-7-8-10-10-|

F#|-------------------------------------|
C#|-------------------------------------|
G#|-------------------------------------|
C#|-0---0---0---0---0-0---0---0---0---0-|

|================================================================================================|
Добавлено: 01.06.2012
Другие материалы по этой песне:
  • Аккорды и текст

Страница создана 09.04.2012
http://primanota.ru/evans-blue/a-cross-and-a-girl-named-blessed-chords.htm
Привет, Гость.
Предлагаем пройти революционный курс по гитаре.
Подарок от PrimaNota.Ru, забирай!