PrimaNota.ru - самый крупный в мире бесплатный архив песенных текстов, аккордов, табулатур и нот


Evans Blue - A Cross And A Girl Named Blesse - таба, видео

Регистрация Запомнить меня
Войти через:  Facebook Google Twitter Vk Yandex Mail.ru

Evans Blue - A Cross And A Girl Named Blesse - таба, видео

Печатать
Просмотров: 102
Title: A Cross and a Girl Named Blessed
Artist: Evans Blue
Album: The Melody and the Energetic Nature of Volume

Tabbed by: Jason (pojo_us[at]yahoo.com)

Tuning: Dropped C# (C# G# C# F# B# D#)  dropped D half step down

So Ultimate Guitar is lacking in Evans Blue tabs. They are a kick@ss band with some 
awesom melodies and they deserve more tabs to be made. I don't know if its due to the fact 
they are new or some of their songs just plain suck to tab, but theres only a few songs tabbed.

This is my newest version (7/1/09) it sounds great with the music. I'de say its about 
Most of the strum patterns are included, but they aren't to hard to figure out by 
to the song.

intro
|---------------------------------|
|---------------------------------|
|---------------------------------|
|--0-0---0-0---0-0--8-8-8-7-8-10--|
|--0-0---0-0---0-0--8-8-8-7-8-10--|
|--0-0---0-0---0-0--8-8-8-7-8-10--|

|--------------------------------|
|--------------------------------|
|--------------------------------|
|--0-0---0-0---0-0--8-8-8-7-8-7--|
|--0-0---0-0---0-0--8-8-8-7-8-7--|
|--0-0---0-0---0-0--8-8-8-7-8-7--|

|---------------------------------|
|---------------------------------|
|---------------------------------|
|--0-0---0-0---0-0--8-8-8-7-10-7--|
|--0-0---0-0---0-0--8-8-8-7-10-7--|
|--0-0---0-0---0-0--8-8-8-7-10-7--|

|----------------------|
|----------------------|
|----------------------|
|--5--5-5-5--8--8-8-7--|
|--5--5-5-5--8--8-8-7--|
|--5--5-5-5--8--8-8-7--|

verse
|------------------------------------|
|------------------------------------|
|------------------------------------|
|------------------------------| X 3-|
|------8-8-7-7-10-8-7-8-7-5-7--------|
|--0-0-------------------------------|
<---------palm muted-----------------|

|----------------------|
|----------------------|
|----------------------|
|--5--5-5-5--8--8-8-7--|
|--5--5-5-5--8--8-8-7--|
|--5--5-5-5--8--8-8-7--|

|------------------------------------|
|------------------------------------|
|------------------------------------|
|------------------------------| X 3-|
|------8-8-7-7-10-8-7-8-7-5-7--------|
|--0-0-------------------------------|
<---------palm muted-----------------|

|----------------------|
|----------------------|
|----------------------|
|--5--5-5-5--8--8-8-7--|
|--5--5-5-5--8--8-8-7--|
|--5--5-5-5--8--8-8-7--|

chorus
|---------------------------------------------|
|---------------------------------------------|
|---------------------------------------------|
|--8--8-8-8--8-8-8-8-10-10-3--3-3-3-2--2-2-2--|
|--8--8-8-8--8-8-8-8-10-10-3--3-3-3-2--2-2-2--|
|--8--8-8-8--8-8-8-8-10-10-3--3-3-3-2--2-2-2--|

|---------------------------------------------|
|---------------------------------------------|
|---------------------------------------------|
|--8--8-8-8--8-8-8-8-10-10-3--3-3-3-5--5-5-5--|
|--8--8-8-8--8-8-8-8-10-10-3--3-3-3-5--5-5-5--|
|--8--8-8-8--8-8-8-8-10-10-3--3-3-3-5--5-5-5--|

|-----------------------------------------------|
|-----------------------------------------------|
|-----------------------------------------------|
|--8-8--8-8--8-8--8-8--8-10-10-3--3-3-2--2-2-2--|
|--8-8--8-8--8-8--8-8--8-10-10-3--3-3-2--2-2-2--|
|--8-8--8-8--8-8--8-8--8-10-10-3--3-3-2--2-2-2--|

|-----------------------|
|-----------------------|
|-----------------------|
|--5--5-5-5--5-5-5/7-8--|
|--5--5-5-5--5-5-5/7-8--|
|--5--5-5-5--5-5-5/7-8--|

intro again
|---------------------------------|
|---------------------------------|
|---------------------------------|
|--0-0---0-0---0-0--8-8-8-7-8-10--|
|--0-0---0-0---0-0--8-8-8-7-8-10--|
|--0-0---0-0---0-0--8-8-8-7-8-10--|

|--------------------------------|
|--------------------------------|
|--------------------------------|
|--0-0---0-0---0-0--8-8-8-7-8-7--|
|--0-0---0-0---0-0--8-8-8-7-8-7--|
|--0-0---0-0---0-0--8-8-8-7-8-7--|

|---------------------------------|
|---------------------------------|
|---------------------------------|
|--0-0---0-0---0-0--8-8-8-7-10-7--|
|--0-0---0-0---0-0--8-8-8-7-10-7--|
|--0-0---0-0---0-0--8-8-8-7-10-7--|

|----------------------|
|----------------------|
|----------------------|
|--5--5-5-5--8--8-8-7--|
|--5--5-5-5--8--8-8-7--|
|--5--5-5-5--8--8-8-7--|

|----------------------|
|----------------------|
|----------------------|
|--5--5-5-5--8--8-8-7--|
|--5--5-5-5--8--8-8-7--|
|--5--5-5-5--8--8-8-7--|

verse
|----------------------------------|
|----------------------------------|
|----------------------------------|
|----------------------------| X 3-|
|------8-8-7-7-10-8-7-8-7-5--------|
|--0-0-----------------------------|
<--------palm muted----------------|

|----------------------|
|----------------------|
|----------------------|
|--5--5-5-5--8--8-8-7--|
|--5--5-5-5--8--8-8-7--|
|--5--5-5-5--8--8-8-7--|

|----------------------------------|
|----------------------------------|
|----------------------------------|
|----------------------------| X 3-|
|------8-8-7-7-10-8-7-8-7-5--------|
|--0-0-----------------------------|
<--------palm muted----------------|

|----------------------|
|----------------------|
|----------------------|
|--5-------15\---------|
|--5-------15\(slide)--|
|--5-------15\---------|

chorus
|---------------------------------------------|
|---------------------------------------------|
|---------------------------------------------|
|--8--8-8-8--8-8-8-8-10-10-3--3-3-3-2--2-2-2--|
|--8--8-8-8--8-8-8-8-10-10-3--3-3-3-2--2-2-2--|
|--8--8-8-8--8-8-8-8-10-10-3--3-3-3-2--2-2-2--|

|---------------------------------------------|
|---------------------------------------------|
|---------------------------------------------|
|--8--8-8-8--8-8-8-8-10-10-3--3-3-3-5--5-5-5--|
|--8--8-8-8--8-8-8-8-10-10-3--3-3-3-5--5-5-5--|
|--8--8-8-8--8-8-8-8-10-10-3--3-3-3-5--5-5-5--|

|-----------------------------------------------|
|-----------------------------------------------|
|-----------------------------------------------|
|--8-8--8-8--8-8--8-8--8-10-10-3--3-3-2--2-2-2--|
|--8-8--8-8--8-8--8-8--8-10-10-3--3-3-2--2-2-2--|
|--8-8--8-8--8-8--8-8--8-10-10-3--3-3-2--2-2-2--|

|-----------------------------------|
|-----------------------------------|
|-----------------------------------|
|--5--5-5-5--5-5-5/7-8--8-3--3-3-3--|
|--5--5-5-5--5-5-5/7-8--8-3--3-3-3--|
|--5--5-5-5--5-5-5/7-8--8-3--3-3-3--|

Bridge
|-----------------------------|
|-----------------------------|
|-----------------------------|
|--8-0-8-0-8-0-8-0-7-8-10-10--|
|--8-0-8-0-8-0-8-0-7-8-10-10--|
|--8-0-8-0-8-0-8-0-7-8-10-10--|

|-------------------------|
|-------------------------|
|-------------------------|
|--8-0-8-0-8-0-8-0-5-5-5--|
|--8-0-8-0-8-0-8-0-5-5-5--|
|--8-0-8-0-8-0-8-0-5-5-5--|

|-----------------------------|
|-----------------------------|
|-----------------------------|
|--8-0-8-0-8-0-8-0-7-8-10-10--|
|--8-0-8-0-8-0-8-0-7-8-10-10--|
|--8-0-8-0-8-0-8-0-7-8-10-10--|

|-----------------------------|
|-----------------------------|
|-----------------------------|
|--8-0-8-0-8-0-8-0-8-7-3-5-0--|
|--8-0-8-0-8-0-8-0-8-7-3-5-0--|
|--8-0-8-0-8-0-8-0-8-7-3-5-0--|

|---------------------------|
|---------------------------|
|----7---------5------------|
|----7----8----5----7----8--| X 2
|--5------8--3------7----8--|
|-------8---------7----8----|

|----------------|
|----------------|
|----------------|
|--0-------------|
|--0--(hold)-----|
|--0-------------|

|-------------------------------------------|
|-------------------------------------------|
|-------------------------------------------|
|--0-0-0-0-0-0--3-3-3-3-3-3--5-5-5-5-5-5----|
|--0-0-0-0-0-0--3-3-3-3-3-3--5-5-5-5-5-5----|
|--0-0-0-0-0-0--3-3-3-3-3-3--5-5-5-5-5-5----|
<-------------palm mute---------------------|

|-------------------------------|
|-------------------------------|
|-------------------------------|
|-------------------------------|
|--10-10-8-8-7-7-8-8-7-7-3-3----|
|-------------------------------|
<----------palm mute------------|

|-------------------------------------------------|
|-------------------------------------------------|
|-------------------------------------------------|
|--0-0-0-0-0-0--3-3-3-3-3-3--5--5-5-5--5-5/7/8----|
|--0-0-0-0-0-0--3-3-3-3-3-3--5--5-5-5--5-5/7/8----|
|--0-0-0-0-0-0--3-3-3-3-3-3--5--5-5-5--5-5/7/8----|
<--------palm mute--------------------------------|

chorus
clean
|---------------------------------------------|
|---------------------------------------------|
|---------------------------------------------|
|--8--8-8-8--8-8-8-8-10-10-3--3-3-3-2--2-2-2--|
|--8--8-8-8--8-8-8-8-10-10-3--3-3-3-2--2-2-2--|
|--8--8-8-8--8-8-8-8-10-10-3--3-3-3-2--2-2-2--|

distortion
|---------------------------------------------|
|---------------------------------------------|
|---------------------------------------------|
|--8--8-8-8--8-8-8-8-10-10-3--3-3-3-5--5-5-5--|
|--8--8-8-8--8-8-8-8-10-10-3--3-3-3-5--5-5-5--|
|--8--8-8-8--8-8-8-8-10-10-3--3-3-3-5--5-5-5--|

|-----------------------------------------------|
|-----------------------------------------------|
|-----------------------------------------------|
|--8-8--8-8--8-8--8-8--8-10-10-3--3-3-2--2-2-2--|
|--8-8--8-8--8-8--8-8--8-10-10-3--3-3-2--2-2-2--|
|--8-8--8-8--8-8--8-8--8-10-10-3--3-3-2--2-2-2--|

|-----------------------|
|-----------------------|
|-----------------------|
|--5--5-5-5--5-5-5/7-8--|
|--5--5-5-5--5-5-5/7-8--|
|--5--5-5-5--5-5-5/7-8--|

intro again
|---------------------------------|
|---------------------------------|
|---------------------------------|
|--0-0---0-0---0-0--8-8-8-7-8-10--|
|--0-0---0-0---0-0--8-8-8-7-8-10--|
|--0-0---0-0---0-0--8-8-8-7-8-10--|

|--------------------------------|
|--------------------------------|
|--------------------------------|
|--0-0---0-0---0-0--8-8-8-7-8-7--|
|--0-0---0-0---0-0--8-8-8-7-8-7--|
|--0-0---0-0---0-0--8-8-8-7-8-7--|

|---------------------------------|
|---------------------------------|
|---------------------------------|
|--0-0---0-0---0-0--8-8-8-7-10-7--|
|--0-0---0-0---0-0--8-8-8-7-10-7--|
|--0-0---0-0---0-0--8-8-8-7-10-7--|

bridge
|----------------------------|
|----------------------------|
|----------------------------|
|--8-0-8-0-8-0-8-0-7-8-10-10-|
|--8-0-8-0-8-0-8-0-7-8-10-10-|
|--8-0-8-0-8-0-8-0-7-8-10-10-|

|-------------------------|
|-------------------------|
|-------------------------|
|--8-0-8-0-8-0-8-0--3--3--|
|--8-0-8-0-8-0-8-0--3--3--|
|--8-0-8-0-8-0-8-0--3--3--|

|----------------------------|
|----------------------------|
|----------------------------|
|--8-0-8-0-8-0-8-0-7-8-10-10-|
|--8-0-8-0-8-0-8-0-7-8-10-10-|
|--8-0-8-0-8-0-8-0-7-8-10-10-|

|-----------------------------|
|-----------------------------|
|-----------------------------|
|--8-0-8-0-8-0-8-0-8-7-3-5-0--|
|--8-0-8-0-8-0-8-0-8-7-3-5-0--|
|--8-0-8-0-8-0-8-0-8-7-3-5-0--|

outro
|----------------------------------------------|
|----------------------------------------------|
|----------------------------------------------|
|--0--0--0--0--0-0--0--0--0--0--0-7-8-10-10----|
|--0--0--0--0--0-0--0--0--0--0--0-7-8-10-10----|
|--0--0--0--0--0-0--0--0--0--0--0-7-8-10-10----|
 <-----------palm mute-------------------------|

|------------------------------------|
|------------------------------------|
|------------------------------------|
|--0--0--0--0--0-0--0--0--0--0--0----|
|--0--0--0--0--0-0--0--0--0--0--0----|
|--0--0--0--0--0-0--0--0--0--0--0----|
 <------------palm mute--------------|

So yeah, thats pretty much it. There's still some subtle notes that I haven't figured out.
Добавлено: 09.04.2012
Другие материалы по этой песне:
  • Аккорды и текст

Страница создана 09.04.2012
http://primanota.ru/evans-blue/a-cross-and-a-girl-named-blesse-chords.htm
Привет, Гость.
Предлагаем пройти революционный курс по гитаре.
Подарок от PrimaNota.Ru, забирай!