PrimaNota.ru - самый крупный в мире бесплатный архив песенных текстов, аккордов, табулатур и нот


Evanescence - The Open Door (album) - таба, видео

Регистрация Запомнить меня
Войти через:  Facebook Google Twitter Vk Yandex Mail.ru

Evanescence - The Open Door (album) - таба, видео

Печатать
Просмотров: 118
Artist: Evanescence
Album: The Open Door
Song: Sweet Sacrifice
Tuning: Drop c#
Intro:
E|---------------------------------|---------------------------------|
B|---------------------------------|---------------------------------|
G|---------------------------------|---------------------------------|
D|-5-5-5--5-5-5-5-5--5-5-5-5-5-5-5-|-1-1-1--1-1-1-1-1--1-1-1-1-0-0-0-|
A|-5-5-5--5-5-5-5-5--5-5-5-5-5-5-5-|-1-1-1--1-1-1-1-1--1-1-1-1-0-0-0-|
D|-5-5-5--5-5-5-5-5--5-5-5-5-5-5-5-|-1-1-1--1-1-1-1-1--1-1-1-1-0-0-0-|
'fear is only in our minds'
E|--------------------------------------------|
B|--------------------------------------------|
G|--------------------------------------------|
D|-12---10-12---13---12---13---10--10---8h10--|
A|---10-------10---10---10---10---8---8-------|
D|--------------------------------------------|
Pre verse fill:
E|--------------|---------------|
B|--------------|---------------|
G|--------------|---------------|
D|-3-3--6-6-5-3-|--3-3--6-6-5-3-|
A|-3-3--6-6-5-3-|--3-3--6-6-5-3-|
D|-3-3--6-6-5-3-|--3-3--6-6-5-3-|

E|-----------------------|
B|-----------------------|
G|-----------------------|
D|---11b12--------15b1---|
A|-----------------------|
D|-----------------------|
Verse (you poor sweet innocent thing):
E|------------------|---------------------------|------------------|---------------------------|
B|------------------|---------------------------|------------------|---------------------------|
G|------------------|---------------------------|------------------|---------------------------|
D|-3-3-6-6-3-3-6-5--|-3-3-6-6-3-3-6-5--3--3-3-3-|-3-3-6-6-3-3-6-5--|-3-3-6-6-3-3-6-5--1--1-1-1-|
A|-3-3-6-6-3-3-6-5--|-3-3-6-6-3-3-6-5--3--3-3-3-|-3-3-6-6-3-3-6-5--|-3-3-6-6-3-3-6-5--1--1-1-1-|
D|-3-3-6-6-3-3-6-5--|-3-3-6-6-3-3-6-5--3--3-3-3-|-3-3-6-6-3-3-6-5--|-3-3-6-6-3-3-6-5--1--1-1-1-|
Pre chorus (one day i'm gonna forget your name):
E|---------------------------------|----------------------------------------------------|
B|---------------------------------|----------------------------------------------------|
G|---------------------------------|----------------------------------------------------|
D|-5-5-5--5-5-5-5-5--5-5-5-5-5-5-5-|-1-1-1--1-1-1-1-1--1-1-1-1--------------------------|
A|-5-5-5--5-5-5-5-5--5-5-5-5-5-5-5-|-1-1-1--1-1-1-1-1--1-1-1-1--------------------------|
D|-5-5-5--5-5-5-5-5--5-5-5-5-5-5-5-|-1-1-1--1-1-1-1-1--1-1-1-1-1p0-0--0-1-0-1p3p1-0-1-0-|
Chorus (fear is only in our minds):
E|--------------------------------------------|
B|--------------------------------------------|
G|--------------------------------------------|
D|-12---10-12---13---12---13---10--10---8h10--|
A|---10-------10---10---10---10---8---8-------|
D|--------------------------------------------|
Post 2nd chorus:
E|------------------|------------------|------------------|------------------------|
B|------------------|------------------|------------------|------------------------|
G|------------------|------------------|------------------|------------------------|
D|-3h5-5-5--3h5-5-5-|-3h6-6-6--3h6-6-6-|-5h8-8-8--5h8-8-8-|-6h10-10-10--6h10-10-10-|
A|-3h5-5-5--3h5-5-5-|-3h6-6-6--3h6-6-6-|-5h8-8-8--5h8-8-8-|-6h10-10-10--6h10-10-10-|
D|-3h5-5-5--3h5-5-5-|-3h6-6-6--3h6-6-6-|-5h8-8-8--5h8-8-8-|-6h10-10-10--6h10-10-10-|
Fill:
E|----------------|
B|----------------|
G|----------------|
D|-13--13--13--13-|
A|-13--13--13--13-|
D|-13--13--13--13-|
Outro verse:
E|------------------|---------------------------|------------------|---------------------------|
B|------------------|---------------------------|------------------|---------------------------|
G|------------------|---------------------------|------------------|---------------------------|
D|-3-3-6-6-3-3-6-5--|-3-3-6-6-3-3-6-5--3--3-3-3-|-3-3-6-6-3-3-6-5--|-3-3-6-6-3-3-6-5--1--1-1-1-|
A|-3-3-6-6-3-3-6-5--|-3-3-6-6-3-3-6-5--3--3-3-3-|-3-3-6-6-3-3-6-5--|-3-3-6-6-3-3-6-5--1--1-1-1-|
D|-3-3-6-6-3-3-6-5--|-3-3-6-6-3-3-6-5--3--3-3-3-|-3-3-6-6-3-3-6-5--|-3-3-6-6-3-3-6-5--1--1-1-1-|

E|---------------------------|---------------------------|---------------------------|---
B|---------------------------|---------------------------|---------------------------|---
G|---------------------------|---------------------------|---------------------------|---
D|-3-3-6-6-3-3-6-5--3h5--3h5-|-3-3-6-6-3-3-6-5--3--3-3-3-|-3-3-6-6-3-3-6-5--3h5--3h5-|-3-
A|-3-3-6-6-3-3-6-5--3h5--3h5-|-3-3-6-6-3-3-6-5--3--3-3-3-|-3-3-6-6-3-3-6-5--3h5--3h5-|-3-
D|-3-3-6-6-3-3-6-5--3h5--3h5-|-3-3-6-6-3-3-6-5--3--3-3-3-|-3-3-6-6-3-3-6-5--3h5--3h5-|-3-

------------------------|
------------------------|
------------------------|
3-6-6-3-3-6-5--1--1-1-1-|
3-6-6-3-3-6-5--1--1-1-1-|
3-6-6-3-3-6-5--1--1-1-1-|


|| CALL ME WHEN YOU'RE SOBER ||
|| EVANESCENCE ||
|| THE OPEN DOOR ||
DROP D
INTRO
Part One - Piano
E5 - C5 - E5 - Eb5
G5 - Eb5 - G - C  [G]
||-----------------------------------||
||-----------------------------------||
||-----------------------------------||
||--2--10--2--1----5--1--5--10----5--||
||--2--10--2--1----5--1--5--10----5--||
||--2--10--2--1----5--1--5--10----5--||
VERSE TAPPING RIFF
||-------------------------------------------------------------------||
||-------------------------------------------------------------------||
||-------------------------------------------------------------------||
||--0-2---2h5t17---2h5t16---2h5t14---0h2---2h5t17---2h5t16---2h5t12--||
||--0-2------------------------------0h2-----------------------------||
||--0-2------------------------------0h2-----------------------------||

||-------------------------------------------------------------------||
||-------------------------------------------------------------------||
||-------------------------------------------------------------------||
||--0-2---2h5t17---2h5t16---2h5t14---0h2---2h5t17---2h5t16---2h5t10--||
||--0-2------------------------------0h2-----------------------------||
||--0-2------------------------------0h2-----------------------------||
VERSE
(Part One)
D5 E5
||-----------------------------------||
||-----------------------------------||
||-----------------------------------||
||------0-2-----------------0-2------||
||------0-2-----------------0-2------||
||------0-2-----------------0-2------||

||-----------------------------------||
||-----------------------------------||
||-----------------------------------||
||------0-2-----------------0-2------||
||------0-2-----------------0-2------||
||------0-2-----------------0-2------||
VERSE TAPPING RIFF:
PRECHORUS
C5 - B5
||----------------||
||----------------||
||----------------||
||--10-10-xx-9-9--||
||--10-10-xx-9-9--||
||--10-10-xx-9-9--||
CHORUS
E5 - C5 - E5 - Eb5
G5 - Eb5 - G - C  [G]
||-----------------------------------||
||-----------------------------------||
||-----------------------------------||
||--2--10--2--1----5--1--5--10----5--||
||--2--10--2--1----5--1--5--10----5--||
||--2--10--2--1----5--1--5--10----5--||
INTERLUDE
(Piano between Power Chords)
D5 E5
||-----------------------------------||
||-----------------------------------||
||-----------------------------------||
||------0-2-----------------0-2------||
||------0-2-----------------0-2------||
||------0-2-----------------0-2------||
VERSE
VERSE TAPPING RIFF
PRECHORUS
CHORUS
BRIDGE
(Part One - Synth)
C5 - Eb5 - G - G
C5 - Eb5 - G - G
Eb5 - G
(Part Two - Guitar)
A-------------------------------------||5 - D5 E5 - C5 - B5
A-------------------------------------||5 - D5 E5 - C5 - B5
||------------------------------------||
||------------------------------------||
||------------------------------------||
||--7--0-2--10--2----7--0-2--10--9----||
||--7--0-2--10--2----7--0-2--10--9----||
||--7--0-2--10--2----7--0-2--10--9----||
CHORUS

WEIGHT OF THE WORLD - Evanescence
Tuning: Drop Db
===================================Intro===================================
[guitar 1]
e|-------------------------------------------------------------------------|
B|-------------------------------------------------------------------------|
G|----------------------------------------------------------(2x)-----------|
D|-----2-----------2--3--0-----2-3-2-2-2------2-3-2-2-2--------------------|
A|-----2-----------2--3--0-----2-3-2-2-2------2-3-2-2-2--------------------|
E|-2-2-2-------2-2-2--3--0-----2-3-2-2-2------2-3-2-2-2--------------------|
 [guitar 2]  (second time)
e|-------------------------------------------------------------------------|
B|-------------------------------------------------------------------------|
G|-x-x-9--13--16--16-17-14------16-17-16-13-13-------9-10-9-9-9------------|
D|-------------------------------------------------------------------------|
A|-x-x-7--11--14--14-15-12------14-15-14-11-11-------7-8--7-7-7------------|
E|-------------------------------------------------------------------------|
VERSE
e|---------------------------------------|
B|---------------------------------------|
G|---------------------------------------|
D|--2-3-2-2-2-----2-3-2-2-2----(3x)------|
A|--2-2-2-2-2-----2-3-2-2-2--------------|
E|--2-3-2-2-2-----2-3-2-2-2--------------|
(Freefall, freefall, all through life...)
INTRO RIFF
[Chorus] (rhythm not written out)
  If you love me...                           Then Let go of me
e|-------------------------------------------------------------------------|
B|-------------------------------------------------------------------------|
G|-------------------------------------------------------------------------|
D|--7----------------------3--------------------7-------------------3------|
A|--7----------------------3--------------------7-------------------3------|
E|--7----------------------3--------------------7-------------------3------|
   I won't be held down                     By who I          used       to
e|-------------------------------------------------------------------------|
B|-------------------------------------------------------------------------|
G|-------------------------------------------------------------------------|
D|--7----------------------3-------------------0---------------2-----------|
A|--7----------------------3-------------------0---------------2-----------|
E|--7----------------------3-------------------0---------------2-----------|
  Be...   (strumming is correct)
INTRO RIFF
 [Verse]
[Chorus]
[Bridge]
Be......
INTRO RIFF
 [Acoustic Chorus]
The Chords:
e|--0-------------------0-----------------0--------------------------------|
B|--0----------6--------0--------6--------0--------6-------3------5--------|
G|--2----------5--------2--------5--------2--------5-------2------4--------|
D|--2----------3--------2--------3--------2--------3-------0------2--------|
A|--0----------3--------0--------3--------0--------3-------0------2--------|
E|-------------3-----------------3-----------------3-------0------2--------|
(on the last 4 chords this riff is played 4 times)
e|------------------------------------|
B|------------------------8-----------|
G|------------------------------------|
D|-----------7--9--10--9--------------|
A|------------------------------------|
E|------------------------------------|
[Chorus]
e|--20--19------19--17----20--19---/19---------20--19---19--17-------------|
B|------20------20------------20------------20-----20---20-----------------|
G|----------------------------------------------------------------(etc...)-|
D|-------------------------------------------------------------------------|
A|-------------------------------------------------------------------------|
E|-------------------------------------------------------------------------|







		            LITHIUM - Evanescence
Tuning: Drob Bb (yeah... I know what you're thinking)
But god, I wanna let it go...
C |------------------------------------------------------------------------|
G |------------------------------------------------------------------------|
Eb|------------------------------------------------------------------------|
Bb|---------------------------0--------xx-0------------------xx-0----------|
F |---------------------------0--------xx-0------------------xx-0----------|
Bb|---------------------------0--------xx-0------------------xx-0----------|
Verse
(Come to bed...)
|-------------------------------------------------------------------|
|-------------------------------------------------------------------|
|------7-------7-------7-------7-------2---3-----2-------3----------|
|----7---7---7---7---7---7---7-------3-------3---------3-----3------|
|--5-------5-------5-------5-------1-----1-----1-----1--------------|
|-------------------------------------------------------------------|

|-------------------------------------------------------------------|
|-------------------------------------------------------------------|
|------2---3-------------------5-------7-------7-------7-------7----|
|----3-------3---------5-0---5---5---7---7---7---7---7---7---7---7--|
|--1-----1-----1-0---5-----3-------5-------5-------5-------5--------|
|------------------5------------------------------------------------|

|-------------------------------------------------------------------|
|-------------------------------------------------------------------|
|------7-------7-------7-------7-------2---3-----2-------3----------|
|----7---7---7---7---7---7---7-------3-------3---------3-----3------|
|--5-------5-------5-------5-------1-----1-----1-----1--------------|
|-------------------------------------------------------------------|

|-----------------------------------|
|-----------------------------------|
|------2---3-------------------5----|
|----3-------3---------5-0---5---5--|
|--1-----1-----1-0---5-----3--------|
|------------------5----------------|
(I can't hold on to me...)
|-------------------------------------------------------------------|
|--------6---------------1---------------6--------------------------|
|------7-----7---------3-----3---------7-----7-----------7----------|
|----7---------7-----3---------3-----7---------7-------5-----5------|
|--5-------------5-1-------------1-5-------------5---5---------5----|
|--------------------------------------------------5-------------5--|
Chorus
|----------------------|
|----------------------|
|----------------------|
|--0-------10-------5--|
|--0-------10-------5--|
|--0-------10-------5--|
Bridge

|------------------------------------------------------------------|
|------------------------------------------------------------------|
|------------------------------------------------------------------|
|--8---------------10--------------0-------------------------------|
|--8---------------10--------------0-------7-8---10--8---7---8-----|
|--8---------------10--------------0-------------------------------|
(Drown my will to...)
|------------------------------------------------------------------|
|------------------------------------------------------------------|
|------------------------------------------------------------------|
|--8---------------5-------10------0-------------------------------|
|--8---------------5-------10------0-------8-7---7---5---5---3-----|
|--8---------------5-------10------0-------------------------------|
(Here in the darkness...)
|------------------------------------------------------------------|
|------------------------------------------------------------------|
|------------------------------------------------------------------|
|--8---------------7---------------0-------------------------------|
|--8---------------7---------------0-------7-8---10--8---7---8-----|
|--8---------------7---------------0-------------------------------|

|----------------------------------|
|----------------------------------|
|----------------------------------|
|--8---------------5-------10------|
|--8---------------5-------10------|
|--8---------------5-------10------|
(Go...)
|------------------------|
|------------------------|
|------------------------|
|----0--------xx-0-------|
|----0--------xx-0-------|
|----0--------xx-0-------|
[Repeat Verse and Chorus]


	                  Cloud Nine- Evanescence
Tuning: Drop Db
[Verse]
e|----------------------------------------------------------|
B|----------------------------------------------------------|
G|----------------------------------------------------------|
D|---0202-02-020-----0202-02-020-----0202-02-020------------| (Hiiiigh...)
A|---0202-02-020-----0202-02-020-----0202-02-020------------|
E|---0202-02-020-----0202-02-020-3~~-0202-02-020------------|

e|----------------------------------------------------------|
B|----------------------------------------------------------|
G|-------------------------------------9--16--9--15~~~------|
D|---0202-02-020-----0202-02-020----------------------------|
A|---0202-02-020-----0202-02-020-------7--14--7--13~~~------|
E|---0202-02-020-----0202-02-020-3~~------------------------|
 [Prechorus]
(Guitar 1)
e|--0-/-12-------12-------------14-------14-------12-14-15~~~~15~~~15\-----|
B|---------10-10----10-10-10/12----12-12----12-12--------------------------|
G|-------------------------------------------------------------------------|
D|-------------------------------------------------------------------------|
A|-------------------------------------------------------------------------|
E|-------------------------------------------------------------------------|

12-0-0-12-0-0-12-0-12-------12----------14-------14-------12-14------------|
----------------------10-10----10-10/12----12-12----12-12------------------|
------------------------------------------------------------------11-8-4-16|
---------------------------------------------------------------------------|
------------------------------------------------------------------9--6-2-14|
---------------------------------------------------------------------------|
(Guitar 2) (Nothing for the first part) and then...
e|-------------------------------|
B|-------------------------------|
G|-----------------------4-------|
D|--2-4-5-9-7----5-4--1--4-------|
A|--2-4-5-9-7----5-4--1--2-------|
E|--2-4-5-9-7----5-4--1----------|
[Chorus]
e|------------------------------------|
B|------------------------------------|
G|-------------------------5-------4--|
D|---10---2---10---2---0---5---2---4--|
A|---10---2---10---2---0---3---2---2--|
E|---10---2---10---2---0-------2------|
2nd Chorus
e|---------------------------------------------------------------------|
B|---------------------------------------------------------------------|
G|-----------------------------4----------------------------5-------4--|
D|---10---2---10---2---7---2---4------10---2---10---2---0---5---2---4--|
A|---10---2---10---2---7---2---2------10---2---10---2---0---3---2---2--|
E|---10---2---10---2---7---2----------10---2---10---2---0-------2------|
[Bridge] (This next part is hard to hear... but he DOES change notes)
    Will you...
e|--------------------------------------------------------------------|
B|--------------------------------------------------------------------|
G|--------------------------------------------------------------------|
D|--------------------------------------------------------------------| 2x
A|--5202--5202------5202--5202----------------------------------------|
E|--5202--5202------5202--5202----4-5-7--5--4~~~---4-5-7--5--4~~~~----|
                 change my mind...
e|-------------------------------------------|
B|-------------------------------------------|
G|--------------------4----------------------|
D|--7----2---5----7-4-4----------------------|
A|--7----2---5----7-4-2----------------------|
E|--7----2---5----7-4------------------------|
[End Chorus]
e|---------------------------------------------------------------------|
B|---------------------------------------------------------------------|
G|-----------------------------4----------------------------5-------4--|
D|---10---2---10---2---7---2---4------10---2---10---2---0---5---2---4--|
A|---10---2---10---2---7---2---2------10---2---10---2---0---3---2---2--|
E|---10---2---10---2---7---2----------10---2---10---2---0-------2------|







			     Lacrymosa - Evanescence
Chorus:
                 x2
D#|---------------|-------------------------|
A#|---------------|-------------------------|
F#|---------------|-------------------------|
C#|--3---6-6-5-5--|--3---5-5-6-6--10-10-10--|
G#|--3---6-6-5-5--|--3---5-5-6-6--10-10-10--|  Repeat
C#|--3---6-6-5—5--|--3---5-5-6-6--10-10-10--|
(“Hold you back now…”)
D#|-----------------|
A#|-----------------|
F#|--6---5---10--5--|
C#|--x---x---x---x--|
G#|--4---3---8---3--|
C#|-----------------|
Bridge: Clean
(Delay and Reverb)
D#|---------------------------------|
A#|---------------------------------|
F#|---------------------------------|
C#|------------------------1-----1--|
G#|-----4-3------4-3----------------|
C#|--3--------3---------1-----1-----|
Distorted:
D#|------------------------------------------------------------|
A#|------------------------------------------------------------|
F#|---------6-5------------6-5------6---6-6--13—--6---6-6—-13--|
C#|--3------x-x---3-3------x-x------x---x-x--x----x---x-x—-x---|
G#|--3------4-3---3-3------4-3------4---4-4--11---4---4-4—-11--|
C#|--3---0--------3-3---0--------0-----------------------------|

D#|-------------------------------------------------------------------|
A#|-------------------------------------------------------------------|
F#|---------6-5------------6-5------6---6-6--13—--6---6-6—6-6---------|
C#|--3------x-x---3-3------x-x------x---x-x--x----x---x-x—x-x—(builds)|
G#|--3------4-3---3-3------4-3------4---4-4--11---4---4-4—4-4---------|
C#|--3---0--------3-3---0--------0------------------------------------|
Guitar Solo
D#|-------------------------------------------------------------------|
A#|-------------------------------------------------------------------|
F#|--13-12p10-10v----13--12p10--9b^---13-12p10-10v---13-12p10-10//15--|
C#|-------------------------------------------------------------------|
G#|-------------------------------------------------------------------|
C#|-------------------------------------------------------------------|

D#|--------------------------------------20-------------21--|
A#|--16p13—16//18--18--18-18-18-18-18-18----18-18-18-18-----|
F#|---------------------------------------------------------|
C#|---------------------------------------------------------|
G#|---------------------------------------------------------|
C#|---------------------------------------------------------|

D#|--------------//23-23-23-23-23//24\\-----------------------|
A#|--18-18-18-18--------------------------//18---18-18-18-18--|
F#|-----------------------------------------------------------|
C#|-----------------------------------------------------------|
G#|-----------------------------------------------------------|
C#|-----------------------------------------------------------|

D#|---------------------------------------------------|
A#|--18---18-18-18-18---18---18-18-18-18--17-17-17\\--|
F#|---------------------------------------------------|
C#|---------------------------------------------------|
G#|---------------------------------------------------|
C#|---------------------------------------------------|
Then Chorus:
                 x2
D#|---------------|-------------------------|
A#|---------------|-------------------------|
F#|---------------|-------------------------|
C#|--3---6-6-5-5--|--3---5-5-6-6--10-10-10--|
G#|--3---6-6-5-5--|--3---5-5-6-6--10-10-10--|  Repeat
C#|--3---6-6-5-5--|--3---5-5-6-6--10-10-10--|
 (“Hold you back now…”)
D#|------------------|
A#|------------------|
F#|--6---5---10--12--|
C#|--x---x---x---x---|
G#|--4---3---8---10--|
C#|------------------|

D#|----------------|--------------------------------------------------|
A#|----------------|--------------------------------------------------|
F#|----------------|--------------------------------------------------|
C#|-5p3-3-3-3-3-3--|-6p5p3-6p5p3—6p5p3--3-3-3-3-3--6p5p3-6p5p3—6p5p3--|
G#|-5p3-3-3-3-3-3--|-6p5p3-6p5p3—6p5p3--3-3-3-3-3--6p5p3-6p5p3—6p5p3--|
C#|-5p3-3-3-3-3-3--|-6p5p3-6p5p3—6p5p3--3-3-3-3-3--6p5p3-6p5p3—6p5p3--|
                                             x3
D#|----------------------|--------------------|--------|
A#|----------------------|--------------------|--------|
F#|----------------------|--------------------|--------|
C#|--//10---10-10-10-10--|--10---10-10-10-10--|--//3---|
G#|--//10---10-10-10-10--|--10---10-10-10-10--|--//3---|
C#|--//
Like You – Evanescence
Cm     Ab
Stay low.
Cm     Ab         G
Soft, dark, and dreamless,
Cm     Ab          F             G
  Far beneath my nightmares and loneliness.
Cm     Ab
I hate me,
Cm       Ab       G
For breathing without you.
Cm         Ab      B       Bb       Eb
  I don't want to feel anymore for you.
B             Eb
Grieving for you,
         B            Eb
I'm not grieving for you.
         B                Eb
Nothing real love can't undo,
      B                Eb
And though I may have lost my way,
     B                     Eb
All paths lead straight to you.
   B              Eb
I long to be like you,
     B                       Eb
Lie cold in the ground like you.
Cm  Ab Cm Ab
Cm Ab
Hal-o,
Cm        Ab      G
Blinding wall between us.
Cm      Ab       F         G
  Melt away and leave us alone again.
Cm  Ab    Cm      Ab       G
Humming, haunted somewhere out there.
Cm      Ab       B               Bb         Eb
  I believe our love can see us through in death.
   B              Eb
I long to be like you,
     B                       Eb
Lie cold in the ground like you.
         B               Eb              B           Eb
There's room inside for two and I'm not grieving for you,
     B         Cm    Bb   Ab   G
I'm coming for you.
             Cm    Bb   Ab   G
You're not alone,
     Ab               G                   Cm   B
No matter what they told you, you're not alone.
         Ab     G                Cm   Bb   Ab   G
I'll be right beside you forevermore.
   B              Eb
I long to be like you, sis,
      B                      Eb
Lie cold in the ground like you did.
          B              Eb              Bb          Eb
There's room inside for two and I'm not grieving for you.
    B             Eb
And as we lay in silent bliss,
   B                Eb
I know you remember me.
   B              Eb
I long to be like you,
     B                       Eb
Lie cold in the ground like you.
         B               Eb              B           Eb
There's room inside for two and I'm not grieving for you,
     B          Eb
I'm coming for you.

Cm

e ---|---|-o-|---|---|
B -x-|---|---|---|---|
G ---|---|---|---|---|
D -x-|---|---|---|---|
A ---|---|-x-|---|---|
E ---|---|---|---|---|	Ab

e ---|---|---|-x-|---|
B -x-|---|---|---|---|
G -x-|---|---|---|---|
D -x-|---|---|---|---|
A ---|---|---|---|---|
E ---|---|---|---|---|	G

e ---|---|-x-|---|---|
B ---|---|---|---|---|
G ---|---|---|---|---|
D ---|---|---|---|---|
A ---|-x-|---|---|---|
E ---|---|-x-|---|---|	F

e -x-|---|---|---|---|
B -x-|---|---|---|---|
G ---|-x-|---|---|---|
D ---|---|-x-|---|---|
A ---|---|-x-|---|---|
E -x-|---|---|---|---|
B

e ---|-o-|---|---|---|
B ---|---|---|-x-|---|
G ---|---|---|-x-|---|
D ---|---|---|-x-|---|
A ---|-x-|---|---|---|
E ---|-o-|---|---|---|	Bb

e -o-|---|---|---|---|
B ---|---|-x-|---|---|
G ---|---|-x-|---|---|
D ---|---|-x-|---|---|
A -x-|---|---|---|---|
E -o-|---|---|---|---|	Eb
3 fr.
e -x-|---|---|---|---|
B ---|-x-|---|---|---|
G -x-|---|---|---|---|
D ---|---|-x-|---|---|
A ---|---|---|-x-|---|
E ---|---|---|-o-|---|

Evanescence - All That I'm Living For
Tuning : Dropped B
CHORUS
C#||----------------------|-------------------------|----------------------|
G#||----------------------|-------------------------|----------------------|
E ||----------------------|-------------------------|----------------------|
B ||--4--4-------------0--|--0-------0--4--0-----4--|--4-------------0--0--|
F#||--4--4-------------0--|--0-------0--4--0-----4--|--4-------------0--0--|
B ||--4--4-------------0--|--0-------0--4--0-----4--|--4-------------0--0--|

--------------------------|----------------------|--------------------------|
--------------------------|----------------------|--------------------------|
--------------------------|----------------------|--------------------------|
--L-----0--4--0-----4--4--|--L-------------0--0--|--L-----0--4--0-----4--4--|
--L-----0--4--0-----4--4--|--L-------------0--0--|--L-----0--4--0-----4--4--|
--L-----0--4--0-----4--4--|--L-------------0--0--|--L-----0--4--0-----4--4--|
                                                  PAUSE
----------------------|--------------------------|-----------|
----------------------|--------------------------|-----------|
----------------------|--------------------------|-----------|
--L-----------0--0----|-----(0)--(0)-------------|-----------|
--L-----------0--0----|-----(0)--(0)-------------|-----------|
--L-----------0--0----|-----(0)--(0)-------------|-----------|
VERSES (I. + II.) (Dmi on this tuning)
---9-----9---9---9-----9---9--|---L---9---9---9---9-----9----|
--10----10--10--10----10--10--|---L--10--10--10--10----10----|
--11----11--11--11----11--11--|---L--11--11--11--11----11----|
--11----11--11--11----11--11--|---L--11--11--11--11----11----|
---9-----9---9---9-----9---9--|---L---9---9---9---9-----9----|
------------------------------|------------------------------|

---9-----9---9---9-----9---9--|---L---9---9---9---9-----9----|
--10----10--10--10----10--10--|---L--10--10--10--10----10----|
--11----11--11--11----11--11--|---L--11--11--11--11----11----|
--11----11--11--11----11--11--|---L--11--11--11--11----11----|
---9-----9---9---9-----9---9--|---L---9---9---9---9-----9----|
------------------------------|------------------------------|
 (H on this tuning)
--5----5--5--5----5--5--|--L--5--5--5--5----5----|--5----5--5--5----5--5--|
--7----7--7--7----7--7--|--L--7--7--7--7----7----|--7----7--7--7----7--7--|
--7----7--7--7----7--7--|--L--7--7--7--7----7----|--7----7--7--7----7--7--|
--7----7--7--7----7--7--|--L--7--7--7--7----7----|--7----7--7--7----7--7--|
--5----5--5--5----5--5--|--L--5--5--5--5----5----|--5----5--5--5----5--5--|
------------------------|------------------------|------------------------|
                           (Dmi on this tuning)
--L--5--5--5--5----5----|---9-----9---9---9-----9---9--|
--L--7--7--7--7----7----|--10----10--10--10----10--10--|
--L--7--7--7--7----7----|--11----11--11--11----11--11--|
--L--7--7--7--7----7----|--11----11--11--11----11--11--|
--L--5--5--5--5----5----|---9-----9---9---9-----9---9--|
------------------------|------------------------------|

---L---9---9---9---9-----9----|---9-----9---9---9-----9---9--|
---L--10--10--10--10----10----|--10----10--10--10----10--10--|
---L--11--11--11--11----11----|--11----11--11--11----11--11--|
---L--11--11--11--11----11----|--11----11--11--11----11--11--|
---L---9---9---9---9-----9----|---9-----9---9---9-----9---9--|
------------------------------|------------------------------|
                               (H on this tuning)
---L---9---9---9---9-----9----|--5----5--5--5----5--5--|
---L--10--10--10--10----10----|--7----7--7--7----7--7--|
---L--11--11--11--11----11----|--7----7--7--7----7--7--|
---L--11--11--11--11----11----|--7----7--7--7----7--7--|
---L---9---9---9---9-----9----|--5----5--5--5----5--5--|
------------------------------|------------------------|
                         (A# on this tuning)
--L--5--5--5--5----5----|--4----4--4--4----4--4--|--L--4--4--4--4----4----|
--L--7--7--7--7----7----|--6----6--6--6----6--6--|--L--6--6--6--6----6----|
--L--7--7--7--7----7----|--6----6--6--6----6--6--|--L--6--6--6--6----6----|
--L--7--7--7--7----7----|--6----6--6--6----6--6--|--L--6--6--6--6----6----|
--L--5--5--5--5----5----|--4----4--4--4----4--4--|--L--4--4--4--4----4----|
------------------------|------------------------|------------------------|
CHORUS FILL
--------------------------|--------------------------|
--7--7--7-----------------|--------------------------|
-----------6--6--6--------|--------------------------|
--------------------7--7--|--7--7--7--7--7--7--7--7--|
--------------------------|--------------------------|
--------------------------|--------------------------|

--------------------------|--------------------------|
--7--7--7-----------------|--------------------------|
-----------6--6--6--------|--------------------------|
--------------------7--7--|--7-----------------------|
--------------------------|-----5--5--5--5--5--5--5--|
--------------------------|--------------------------|



BRIDGE (This chord ain't played by a gtr, piano plays it)
-------------------|-------------------||----------------------------||
-------------------|-------------------||----------------------------||
-------------------|-------------------||*--------------------------*||
--4----------------|--L----------------||*--0--0--0--0--0--0--0--0--*||
--4----------------|--L----------------||---0--0--0--0--0--0--0--0---||
--4----------------|--L----------------||---0--0--0--0--0--0--0--0---||


----------------------------||------------------------------------||
----------------------------||------------------------------------||
*--------------------------*||*----------------------------------*||
*--7--7--7--7--7--7--7--7--*||*--11--11--11--11--11--11--11--11--*||
---7--7--7--7--7--7--7--7---||---11--11--11--11--11--11--11--11---||
---7--7--7--7--7--7--7--7---||---11--11--11--11--11--11--11--11---||

----------------------------||----------------------------||
----------------------------||----------------------------||
*--------------------------*||*--------------------------*||
*--4--4--4--4--4--4--4--4--*||*--3--3--3--3--3--3--3--3--*||
---4--4--4--4--4--4--4--4---||---3--3--3--3--3--3--3--3---||
---4--4--4--4--4--4--4--4---||---3--3--3--3--3--3--3--3---||

----------------------------||------------------------------------||
----------------------------||------------------------------------||
*--------------------------*||*----------------------------------*||
*--7--7--7--7--7--7--7--7--*||*--11--11--11--11--11--11--11--11--*||
---7--7--7--7--7--7--7--7---||---11--11--11--11--11--11--11--11---||
---7--7--7--7--7--7--7--7---||---11--11--11--11--11--11--11--11---||

--------------------------|--------------------------|
--------------------------|--------------------------|
--------------------------|--------------------------|
--4--4--4--4--4--4--4--4--|--2--2--2--2--2--2--2--2--|
--4--4--4--4--4--4--4--4--|--2--2--2--2--2--2--2--2--|
--4--4--4--4--4--4--4--4--|--2--2--2--2--2--2--2--2--|

|----------------------------||----------------------------||
|----------------------------||----------------------------||
|*--------------------------*||*--------------------------*||
|*--0--0--0--0--0--0--0--0--*||*--9--9--9--9--9--9--9--9--*||
|---0--0--0--0--0--0--0--0---||---9--9--9--9--9--9--9--9---||
|---0--0--0--0--0--0--0--0---||---9--9--9--9--9--9--9--9---||
CHORUS(then + ch.fill) OUTRO
-------------------||--------------------|--------------------||
-------------------||--------------------|--------------------||
-------------------||*-------------------|-------------------*||
-------------------||*--4----------------|--0----------------*||
-------------------||---4----------------|--0-----------------||
-------------------||---4----------------|--0-----------------||  (x4)
Last 2 hits
----------------------||
----------------------||
----------------------||
--4--4----------------||
--4--4----------------||
--4--4----------------||
ORDER:
CHORUS
-pause-
VERSE I.
CHORUS
CHORUS with CHORUS FILL
-pause-
VERSE II.
CHORUS
CHORUS with CHORUS FILL
BRIDGE
CHORUS
CHORUS with CHORUS FILL
OUTRO
-last 2 hits-







GOOD ENOUGH - EVANESCENCE


C

e ---|---|---|---|---|
B -x-|---|---|---|---|
G ---|---|---|---|---|
D ---|-x-|---|---|---|
A ---|---|-x-|---|---|
E ---|---|-o-|---|---|
G#

e ---|---|---|-x-|---|
B -x-|---|---|---|---|
G -x-|---|---|---|---|
D -x-|---|---|---|---|
A ---|---|---|---|---|
E ---|---|---|---|---|
F

e -x-|---|---|---|---|
B -x-|---|---|---|---|
G ---|-x-|---|---|---|
D ---|---|-x-|---|---|
A ---|---|-x-|---|---|
E -x-|---|---|---|---|
D

e ---|-x-|---|---|---|
B ---|---|-x-|---|---|
G ---|-x-|---|---|---|
D ---|---|---|---|---|
A ---|---|---|---|---|
E ---|---|---|---|---|
G

e ---|---|-x-|---|---|
B ---|---|---|---|---|
G ---|---|---|---|---|
D ---|---|---|---|---|
A ---|-x-|---|---|---|
E ---|---|-x-|---|---|	Fm

e -x-|---|---|---|---|
B -x-|---|---|---|---|
G -x-|---|---|---|---|
D ---|---|-x-|---|---|
A ---|---|-x-|---|---|
E -x-|---|---|---|---|	Am

e ---|---|---|---|---|
B -x-|---|---|---|---|
G ---|-x-|---|---|---|
D ---|-x-|---|---|---|
A ---|---|---|---|---|
E ---|---|---|---|---|
Intro 1st part (this probably needs tweaking?)
Fm  Em(dim)  C#  Em(dim)  C#sus  C#  G
Intro 2nd part (I think this is correct)
Cm  G#  Cm  G#  Cm  G#  D#  Gsus  G
Intro 3rd part
C   C/#    G#  (2x)

C          G#
Under your spell again
F   G#          C
I---- can't say no to you
                       G#
crave my heart and its bleeding in your hand
F   G#          C
I---- can't say no to you
D                      F             C
Shouldn't have let you torture me so sweetly
       G   D                      F
now I------- can't let go of this dream
        Fm
I can't breathe but I feel
Am      F
Good enough
        Am     F       D  F  C
I feel good enough for y--o--u
C  G  G#
C              G#
Drink up sweet decadence
F   G#          C
I---- can't say no to you
C                          G#
and I've completely lost myself and I don't mind
F   G#          C
I---- can't say no to you
D                      F          C
Shouldn't have let you conquer me completely
      G   D        F
now I------  can't let go of this dream
      Fm
can't believe that I feel
Am      F
Good enough
        Am    F
I feel good enough
         G                F                  C
its been such a long time coming, but I feel good
    G         F               C    G     F  C
and I'm still waiting for the r—a—i—n to fa--ll
G         F            C
pour real life down on me
      F            C     F   G
cause I can't hold on to anything this
Am      F
good enough
       Am    F
am I good enough
    D   F            C
for yo--u to love me too?

C  G  G# x2
        C                    G#
so take care what you ask of me
      F    G#          C
cause I----- can't say no
Добавлено: 16.04.2012
Другие материалы по этой песне:
  • Аккорды и текст

Страница создана 16.04.2012
http://primanota.ru/evanescence/the-open-door-album-chords.htm
Привет, Гость.
Предлагаем пройти революционный курс по гитаре.
Подарок от PrimaNota.Ru, забирай!