PrimaNota.ru - самый крупный в мире бесплатный архив песенных текстов, аккордов, табулатур и нот


Evan Taubenfeld - Stubborn - текст песни, таба, видео

Регистрация Запомнить меня
Войти через:  Facebook Google Twitter Vk Yandex Mail.ru

Evan Taubenfeld - Stubborn - текст песни, таба, видео

Печатать
Просмотров: 170
Уроки эстрадного вокала в Санкт-Петербурге
song: Stubborn
artist: Evan Taubenfeld - www.myspace.com/evantaubenfeld 
tuning: Eb Ab Db Gb Bb Ee
guitars: guitar 1 (evan) guitar 2 (unknown)

x4 = strum 4 times  x8 = strum 8 times
X = strum muted strings ////////////// = pickslide
b = bend  r = release bend

Im not sure if this is how evan plays it, or if he plays it in Eb, but all the notes and chords are right.

intro: Guitar 1 (Evan)

E:-------------------------------------------------------------|
B:-----------10------------10------------10--------------10----|
G:--------9-------------9-------------9---------------9--------|
D:----10------------10------------10--------------10-----------|
A:-8-------------7-------------0-------------------------------|
E: --------------------------------------------8---------------|

E:-------------------------------------------------------------|
B:-----------10------------10----------------10----------------|
G:--------9-------------9-------------9------------------------|
D:----10------------10------------10-----10--------------------|
A:-8-------------7-------------0-------------------------------|
E:-------------------------------------------------------------|

Verse: Guitar 1 (Evan)

Things used to be great......
E:-------------------------------------------------------------|
B:-----------10------------10------------10--------------10----|
G:--------9-------------9-------------9---------------9--------|
D:----10------------10------------10--------------10-----------|
A:-8-------------7-------------0-------------------------------|
E:---------------------------------------------8---------------|


E:-------------------------------------------------------------|
B:-----------10------------10---------------10---------10------|
G:--------9-------------9------------9----------9--------------|
D:----10------------10-----------10-----10---------10----------|
A:-8-------------7------------0--------------------------------|
E: ------------------------------------------------------------|


E:-------------------------------------------------------------|
B:-----------10------------10------------10---------------10---|
G:--------9-------------9-------------9----------------9-------|
D:----10------------10------------10---------------10----------|
A:-8-------------7-------------0-------------------------------|
E:----------------------------------------------8--------------|

E:-------------------------------------------------------------|
B:----------10------------10---------------10---------10-------|
G:--------9-------------9-----------9----------9---------------|
D:----10-----------10-----------10-----10---------10-----------|
A:-8-------------7------------0--------------------------------|
E:-------------------------------------------------------------|

Pre-Chorus: Guitar 1 (Evan)

cause your not my type anymore....(strum quietly, getting louder)
E:-------------------------------------------------------------|
B:-------------------------------------------------------------|
G:-5-x8----7-x8------------------------------------------------|
D:-5-x8----7-x8------------------------------------------------|
A:-3-x8----5-x8------------------------------------------------|
E:-------------------------------------------------------------|


Chorus: Guitar 1 (Evan) and Guitar 2

I don't wana play your games........
E:-------------------------------------------------------------|
B:-------------------------------------------------------------|
G:-------------------5x4---------------------------------------|
D:--X--X---7x4--3x4--5x4--5x4----------------------------------|
A:--X--X---7x4--3x4--3x4--5x4----------------------------------|
E:--X--X---5x4--1x4-------3x4----------------------------------|



I don't care if i lose you today.......
E:-------------------------------------------------------------|
B:-------------------------------------------------------------|
G:------------5x4----------------------------------------------|
D:--7x4--3x4--5x4--5x4-----------------------------------------|
A:--7x4--3x4--3x4--5x4-----------------------------------------|
E:--5x4--1x4-------3x4-----------------------------------------|



Cause you can't be satisfied by anything.......
E:-------------------------------------------------------------|
B:-------------------------------------------------------------|
G:------------5x4----------------------------------------------|
D:--7x4--3x4--5x4--5x4-----------------------------------------|
A:--7x4--3x4--3x4--5x4-----------------------------------------|
E:--5x4--1x4-------3x4-----------------------------------------|



So try life without me........
E:-------------------------------------------------------------|
B:-------------------------------------------------------------|
G:-------------------------------------------------------------|
D:--7x4--3x4--5x8----------------------------------------------|
A:--7x4--3x4--5x8----------------------------------------------|
E:--5x4--1x4--3x8----------------------------------------------|


After-Chorus: Guitar 1 (Evan)


E:-------------------------------------------------------------|
B:-----------10------------10------------10--------------10----|
G:--------9-------------9-------------9---------------9--------|
D:----10------------10------------10--------------10-----------|
A:-8-------------7-------------0-------------------------------|
E:---------------------------------------------8---------------|

E:-------------------------------------------------------------|
B:-----------10------------10----------------10----------------|
G:--------9-------------9-------------9------------------------|
D:----10------------10------------10-----10--------------------|
A:-8-------------7-------------0-------------------------------|
E:-------------------------------------------------------------|


After-Chorus: Guitar 2

E:-------------------------------------------------------------|
B:--8b9r8b9----8b9r8b9-----------------------------------------|
G:--------------------------------////////////////-------------|
D:--------------------------------////////////////-------------|
A:--------------------------------///////////////--------------|
E:-------------------------------------------------------------|

the song fades out here, im guessing it goes: Verse 2, Pre-Chorus 2, Chorus 2, bridge (solo?), chorus 3
Добавлено: 18.10.2013
Другие материалы по этой песне:
  • Аккорды и текст

Страница создана 08.10.2013
http://primanota.ru/evan-taubenfeld/stubborn-chords.htm
Привет, Гость.
Предлагаем пройти революционный курс по гитаре.
Подарок от PrimaNota.Ru, забирай!