PrimaNota.ru - самый крупный в мире бесплатный архив песенных текстов, аккордов, табулатур и нот


Evan Dando - Stop My Head - таба, видео

Регистрация Запомнить меня
Войти через:  Facebook Google Twitter Vk Yandex Mail.ru

Evan Dando - Stop My Head - таба, видео

Печатать
Просмотров: 178
Stop My Head
by Evan Dando
from the album Baby I'm Bored
 
By Matt Taylor
mister_indecision@hotmail.com
 
Here is my tab for Stop My Head by Evan Dando...
 
It is normal tuning by the way
 
Intro (the keyboardy bit)
 
E|-------------------------------------------------------------------------
B|--------21-19---------21-19------17---16----17-16---16----17-16----------
G|--16------------16------------16---------16------------16---------16-18--
D|-----16------------16----------------------------------------------------
A|-------------------------------------------------------------------------
E|-------------------------------------------------------------------------
 
The verse...
 
this starts the second time the intro plays but i guess thats only useful
if you have 2 guitars playing
 
you'll have to listen to the song to get the rhythm cos its got little
fast bits in which i don't know how i'm gonna tab buts its not too hard
to figure out...i will just tab the different chords used but i'll put
some lyrics in so you know when to change
 
E|-----------------------------------------
B|-----------------------------------------
G|--------------------4---------------2-2--
D|--2-----------------4---------------2-2--
A|--2-----------------2---------------0-0--
E|--0--------------------------------------
 
    speaking before...figure it out
 
Chorus
 
again just the different chords
 
                                                      |verse
E|--------------------------------------------------------
B|--------------------------------------------------------
G|--------------------------------------------------------
D|--6-----------4---6----7----6-------4------9----7----2--
A|--6-----------4---6----7----6-------4------9----7----2--
E|--4-----------2---4----5----4-------2------7----5----0--
 
    step inside for now  your mind is read   fall down dead
 
the interlude bit
 
I'm not entirely sure about some parts of this but it sounds ok
 
E|-----------------------------------------------------------
B|-----------------------------------------------------------
G|----------------4-------------6---7---6-------------4---6--
D|--5----7--------4-------------6---7---6-------------4---6--
A|--5----7--------2-------------4---5---4-------------2---4--
E|--3----5---------------------------------------------------
 
    dont listen...listen to yourself....listen to yourself
 
Outro
 
Play these 2 chords under the keyboard bit again until end...
sorry but you will have to listen for rhythm again
 
E|----------
B|----------
G|-------6--
D|--2----6--
A|--2----4--
E|--0-------

     
Добавлено: 27.07.2013
Другие материалы по этой песне:
  • Аккорды и текст

Страница создана 27.07.2013
http://primanota.ru/evan-dando/stop-my-head-chords.htm
Привет, Гость.
Предлагаем пройти революционный курс по гитаре.
Подарок от PrimaNota.Ru, забирай!