PrimaNota.ru - самый крупный в мире бесплатный архив песенных текстов, аккордов, табулатур и нот


Eva Cassidy - People Get Ready - аккорды и текст, таба, видео

Регистрация Запомнить меня
Войти через:  Facebook Google Twitter Vk Yandex Mail.ru

Eva Cassidy - People Get Ready - аккорды и текст, таба, видео

Печатать
Просмотров: 444
Уроки эстрадного вокала в Санкт-Петербурге
Авторы музыки: Curtis Mayfield
Авторы текста: Curtis Mayfield
People Get Ready
Eva Cassidy


People Get Ready (Curtis Mayfield)

Arr. Eva Cassidy
Acoustic version from Live At Pearl's (bootleg)

Open, no capo

Chords:

E -     022100
Esus2 - 044200
A -     577600
C#m -   X45564
F#m -   244222


Intro:
--4-h-5--4-------------------0-------------
--5------5--5-----4-----0h2--2------7--9---
------------6-------------------2---7--9---
---------------6-----6---------------------
-------------------------0-----------------
--0----------------------------------------

                            A          E  Esus2       E      C#m
----4-h-5--4---------------0--0--x--0-------0-x--------0-x---4---4-x-x--
----5------5--5-----4------0--0--x--0-------0-x--------0-x---5---5-x-x--
--------------6-----6------6--6--x--1-------2-x--------1-x---6---6-x-x--
-----------------6-----6---7--7--x--2--2-2--4-x--4--2--2-x---6---6-x-x--
---------------------------7--7--x--2--2-2--4-x--4--2--2-x---4---4-x-x--
-0-------------------------5--5--x--0--0-0--0-x--0--0--0-x--------------

   A        E   Esus2   E        C#m        A      E    Esus2
-0--0--x--0-----x--0--0--0--x--4---4-x-x---0--0--x--0-----0-----
-0--0--x--0-----x--0--0--0--x--5---5-x-x---0--0--x--0-----0-----
-6--6--x--1--1--x--2--1--1--x--6---6-x-x---6--6--x--1-----2-----
-7--7--x--2--2--x--4--2--2--x--6---6-x-x---7--7--x--2-----4-----
-7--7--x--2--2--x--4--2--2--x--4---4-x-x---7--7--x--2-----4-----
-5--5--x--0--0--x--0--0--0--x--------------5--5--x--0--0--0--0--

E          C#m             A       E         Esus2
People get ready there's a train a coming

E                 C#m              A      E        Esus2
You don't need no baggage you just get on board

E               C#m           A       E           Esus2
All you need is faith to hear diesels humming

C#m               F#m             A         E
You don't need no ticket you just thank the lord

Esus2  E           C#m         A          E     Esus2
Yeah  yeah  yeah

E         C#m          A         E          Esus2

People get ready for the train to Jordan
Picking up passengers from coast to coast
Faith is the key open the doors and board them
There's room  for all of the loved and lost

(instrumental verse--same chords)

Now there ain't no room for the hopeless sinner
Who's hard on mankind just to save his own
Have pity on those whose chances are thinner
Cause there's no hiding place from the kingdom's throne

Oh people get ready there's a train a-coming
You don't need no baggage you just get on board
All you need is faith to hear diesels humming
You don't need no ticket you just thank the lord

(Play verse chords over the I'm getting readys)

Добавлено: 17.08.2013
Другие материалы по этой песне:
  • Аккорды и текст

Страница создана 09.04.2012
http://primanota.ru/eva-cassidy/people-get-ready-chords.htm
Привет, Гость.
Предлагаем пройти революционный курс по гитаре.
Подарок от PrimaNota.Ru, забирай!