PrimaNota.ru - самый крупный в мире бесплатный архив песенных текстов, аккордов, табулатур и нот


Eva And The Heartmaker - Signals - таба, видео

Регистрация Запомнить меня
Войти через:  Facebook Google Twitter Vk Yandex Mail.ru

Eva And The Heartmaker - Signals - таба, видео

Печатать
Просмотров: 59
Song: Signals
Artist: Eva & the Heartmaker
Album: Dominoes
Year: 2011
Tabbed by: Mike Pressl

This is a very catchy, poppy, easy to play song! Just use standard tuning, no capo needed.
Chords are pretty ambiguous at times, but everything I have here should work.


Intro

Simple version: A E D E x4

Complex version:
   1st, 2nd, 4th times                       3rd time
e-----------------------------------------|----------------------------------------------
B-------2-2-0--0-0-0---------0--0-0-0-2---|---------2-2-0--0-0-0-----3-3-0--0-0-0-2------
G-------2-2-1--1-1-1-2---2-2-1--1-1-1-2---|---------2-2-1--1-1-1-2---2-2-1--1-1-1-2------
D---2-2-2-2-2-2-2-2--0-0-0-0-2-2-2-2--2---|-----2-2-2-2-2-2-2-2--0-0-0-0-2-2-2-2--2------
A---0-0-0-0-0-0-0-0--0-0-0-0-0-0-0-0--0---|-----0-0-0-0-2-2-2-2----------2-2-2-2--0------
E-----------------------------------------|-----2-2-2-2-0-0-0-0----------0-0-0-0---------
    (A)     (E)      (D)     (E)                (A)     (E)      (D)     (E) 

Verse:
D                          F#m
When you're driving into town
E                             A
Turn me on, I'll always be around
D                            F#m
Endlessly awake and onward bound
E                                       A
So stay with me, I'll never bring you down

Guitar fill:
e--15s17-17s15-15-15-15s12-12-12-12s10-10-10-------
B--15s17-17s15-15-15-15s12-12-12-12s10-10-10-------
G--------------------------------------------------
D--------------------------------------------------
A--------------------------------------------------
E--------------------------------------------------

Pre-chorus:
D
Can you hear me coming through?
Bm
Do you feel like I do?


Chorus:
A       E           D
Keep my yesterdays alive
       E                 A
I will stay here by your side 
      E               D
Every chapter that we write
     E             A
I am calling out tonight
          E           D
You don't have to be alone
            E                 A
Never gonna let you go 'cause I'm
     E   D   E
Your radio
A    E   D   E
Your radio 


Verse:
D                          F#m
Signals flash across the sky
E                              A
Sing and dance along an ocean drive
D                                 F#m
Draw you to my airwaves like the tide
E                                     A
Another moment to remember all your life

(Guitar fill)
(Pre-chorus)
(Chorus)

Bridge:
We are falling all the time (x3)
Singing ooh....

The chords are unclear, but the ending leading up to the final chorus can be played like this:

e-----------------------------------|
B---------10-10-9---9--9--9s10------|
G---------x--x--x---x--x--x---------|
D---------7--7--6---6--6--6s7-------|
A---0--0--0--0--0--0--0--0--0---0---|
E-----------------------------------|

Repeat chorus until end, when you play the part from the intro to finish off the song.

Hope this helps - enjoy!
Добавлено: 01.01.2016
Другие материалы по этой песне:
  • Аккорды и текст

Страница создана 01.01.2016
http://primanota.ru/eva-and-the-heartmaker/signals-chords.htm
Привет, Гость.
Предлагаем пройти революционный курс по гитаре.
Подарок от PrimaNota.Ru, забирай!