PrimaNota.ru - самый крупный в мире бесплатный архив песенных текстов, аккордов, табулатур и нот


Europe - Towers Callin - текст песни, таба, видео

Регистрация Запомнить меня
Войти через:  Facebook Google Twitter Vk Yandex Mail.ru

Europe - Towers Callin - текст песни, таба, видео

Печатать
Просмотров: 200
Уроки эстрадного вокала в Санкт-Петербурге
Авторы музыки: Joey Tempest

E|----------------------------------------|
B|----------------------------------------|
G|----------------------------------------|
D|------4h5h7-s9--10b12-s7-9p7------------|
A|4h5h7-------------------------10b12-r-10|
E|----------------------------------------|

E|-------------------------------------------15p14h17p15|
B|10b12--r-p8-7-10p8--15h17--15-17-17b19--17------------|
G|------------------------------------------------------|
D|------------------------------------------------------|
A|------------------------------------------------------|
E|------------------------------------------------------|

E|17b19-p15-----20b22-20b22--20-19h20-19v|
B|----------17---------------------------|
G|---------------------------------------|
D|---------------------------------------|
A|---------------------------------------|
E|---------------------------------------|

E|-------12-14-15-----15----19-b20-r-15-17---------------------|
B|15b17------------15----15----------------15-12-b14-r---------|
G|-----------------------------------------------------12-14---|
D|-----------------------------------------------------------12|    
A|-------------------------------------------------------------|
E|-------------------------------------------------------------|

E|-------------------------17----------------|
B|----------------------19----20b22--20p19-20|
G|-------------------19----------------------|
D|----------------19-------------------------|    
A|14-b15-r-10--------------------------------|
E|------------10-----------------------------|

E|---15-17-17b19-r-p15-p14-17-15-------|
B|17------------------------------15b17|
G|-------------------------------------|
D|-------------------------------------|    
A|-------------------------------------|
E|-------------------------------------|

E|12----12-15-12-------12-------12-----------------------------|
B|---15----------15-15----15b17----15b17-r-12----15-12-------12|
G|--------------------------------------------14-------14b16---|
D|-------------------------------------------------------------|    
A|-------------------------------------------------------------|
E|-------------------------------------------------------------|

E|--------------------------------------------------------|
B|----------------------------------------13b15---12h13p12|
G|14b16-r-p12----14----12--12-14b16-12-14-----------------|
D|------------14----14------------------------------------|    
A|--------------------------------------------------------|
E|--------------------------------------------------------|

E|---12h15p12------------------------------------|
B|15----------15p12----12h15p12----15----12------|
G|------------------14----------14----14----14---|
D|---------------------------------------------14|    
A|-----------------------------------------------|
E|-----------------------------------------------|

E|---------------------------------------------|
B|---------------------------------------------|
G|12h14p12----12----------------14p12----12----|
D|---------14----14p12h14-11h12-------14----14v|    
A|---------------------------------------------|
E|---------------------------------------------|
Добавлено: 06.05.2012
Другие материалы по этой песне:
  • Аккорды и текст

Страница создана 03.03.2012
http://primanota.ru/europe/towers-callin-chords.htm
Привет, Гость.
Предлагаем пройти революционный курс по гитаре.
Подарок от PrimaNota.Ru, забирай!