PrimaNota.ru - самый крупный в мире бесплатный архив песенных текстов, аккордов, табулатур и нот


Europe - Sign Of The Times - текст песни, таба, видео

Регистрация Запомнить меня
Войти через:  Facebook Google Twitter Vk Yandex Mail.ru

Europe - Sign Of The Times - текст песни, таба, видео

Печатать
Просмотров: 204
Авторы музыки: Joey Tempest

---------------------------------------------------------------------12-14-|
------------------------------------------------------------12-14-15-------|
---------------------------------11----11-13-14-11-13-13-14----------------|
------11-12----11-12-14-11-12-14----14-------------------------------------|
12-14-------14-------------------------------------------------------------|
---------------------------------------------------------------------------|

17-17-16b(17)-16-16-14b(16)-r-p12-14--17-17-16b(17)-r-p14-16-16-b(17)-r-14-|
---------------------------------------------------------------------------|
---------------------------------------------------------------------------|
---------------------------------------------------------------------------|
---------------------------------------------------------------------------|
---------------------------------------------------------------------------|

---------14-16-16b(17)--p14-17b(19)--p14---------|
17b(19)----------------------------------17b(19--|
-------------------------------------------------|
-------------------------------------------------|
-------------------------------------------------|
-------------------------------------------------|

14----17-17-14----14-14-14-------------------------------------------|
---17----------17----------17-14----17-14-14-14----------------------|
---------------------------------16-------------16-15-14----16----14-|
---------------------------------------------------------16----16----|
---------------------------------------------------------------------|
---------------------------------------------------------------------|

16b(17)-p14-19b(21)--p17-----22b(24)--21-20-19------------------|
-------------------------19--------------------22b(24)-r-p19-22-|
----------------------------------------------------------------|
----------------------------------------------------------------|
----------------------------------------------------------------|
----------------------------------------------------------------|

---------------------------------------------------------------14-|
---------------------------14----------------14-15----14-15-17----|
---13-14----13-14-13-14-16----14----13-14-16-------16-------------|
16-------16----------------------16-------------------------------|
------------------------------------------------------------------|
------------------------------------------------------------------|

---------14-16----14-16-17-----------------------------19-21-22-22b(24--|
14-15-17-------17--------------------------17-19-21-22------------------|
----------------------------------16-18-19------------------------------|
----------------------------18-19---------------------------------------|
------------------------------------------------------------------------|
------------------------------------------------------------------------|
Добавлено: 08.04.2012
Другие материалы по этой песне:

Страница создана 08.04.2012
http://primanota.ru/europe/sign-of-the-times-chords.htm
Привет, Гость.
Предлагаем пройти революционный курс по гитаре.
Подарок от PrimaNota.Ru, забирай!