PrimaNota.ru - самый крупный в мире бесплатный архив песенных текстов, аккордов, табулатур и нот


Europe - Days Of Rock N Roll - таба, видео

Регистрация Запомнить меня
Войти через:  Facebook Google Twitter Vk Yandex Mail.ru

Europe - Days Of Rock N Roll - таба, видео

Печатать
Просмотров: 153
(Guitar 1)
1.------------------------------------------|
2.------------------------------------------|
3.------------------------------------------|
4.------------------------------------------|
5.---9---7--7-7--7-7--7-7--3--3-3--3-3--3-3-|
6.---7---5--5-5--5-5--5-5--1--1-1--1-1--1-1-|

  (Guitar 2)
1.-------------------------------------|
2.------------------------8--8--8--6-5-|
3.-------9-9-9--9-10-9-----------------|
4.-------------------------------------|
5.-------------------------------------|
6.-------------------------------------|

   (Guitar 1)
1.----------------------------|
2.----------------------------|
3.----------------------------|
4.---5--5-5--5-5--5-5---7-----|
5.---3--3-3--3-3--3-3---5---7-|
6.--------------------------5-|

   (Guitar 2)
1.-------------------------------|
2.-------------------------5-----|
3.---9-9-9--9-10-9-----/7----7-5-|
4.-------------------------------|
5.-------------------------------|
6.-------------------------------|

  (0:33)(Guitar 1)
1.----------------------------------------|
2.----------------------------------------|
3.----------------------------------------|
4.--------7-------------------7-----------|
5.---5----5----3----7----5----5----3----2-|
6.---3---------1----5----3---------1----0-|

  (1:46)(Guitar 2)
1.-------------------------------------------|
2.---8(10)(8)(10)-8---8----------------------|
3.------------------9---9--7-5-7(9)(7)-7h5---|
4.-----------------------------------------7-|
5.-------------------------------------------|
6.-------------------------------------------|


1.-----------------------------------5------|
2.---8(10)-8(10)(8)--8-------------5---5-8--|
3.-----------------9---9--7-5-7(9)----------|
4.------------------------------------------|
5.------------------------------------------|
6.------------------------------------------|..
Добавлено: 18.12.2015
Другие материалы по этой песне:
  • Аккорды и текст

Страница создана 18.12.2015
http://primanota.ru/europe/days-of-rock-n-roll-chords.htm
Привет, Гость.
Предлагаем пройти революционный курс по гитаре.
Подарок от PrimaNota.Ru, забирай!