PrimaNota.ru - самый крупный в мире бесплатный архив песенных текстов, аккордов, табулатур и нот


Etienne Daho - En Surface - аккорды и текст, видео

Регистрация Запомнить меня
Войти через:  Facebook Google Twitter Vk Yandex Mail.ru

Etienne Daho - En Surface - аккорды и текст, видео

Печатать
Просмотров: 82
Уроки эстрадного вокала в Санкт-Петербурге
En Surface
Etienne Daho
Song: En Surface
Artist: Etienne Daho
Album: Les chansons de l'innocence retrouvée
Year: 2013
Tabber: beranger80@hotmail.com



GM7/D  xx0002



Intro (0:00)

G    Bm  F#  G 
Em/G Bm  F#  G



Verse (0:15)

G                        Bm
Que de temps passé en surface,
     F#                    G
Que de temps à ne pas s'encombrer
Em/G                      Bm
Du temps et des étoiles tombées.
F#                        G
Que de temps passé en surface.



Verse (0:30)

   G                  Bm              F#              G
e------------------|---------------|---------------|------------------|
b--8----8----8-----|--7---7---7----|--7---7---7----|--8----8----8-----|
g----11---11---11--|----9---9---9--|----9---9---9--|----11---11---11--|
d------------------|---------------|---------------|------------------|
a------------------|---------------|---------------|------------------|
e------------------|---------------|---------------|------------------|

G                        Bm
Je me voulais léger, léger
     F#                    G
Du plaisir sans se retourner.
Em/G                       Bm
Ce plaisir ne m'allégeait pas,
F#7                     G
La beauté n'avait pas de bras.



Verse (0:45)

G                        Bm
Je rêvais d'une vie de plumes,
     F#                    G
Ignorais la stèle et l'enclume
Em/G                      Bm
Je balayais mes propres traces
F#                        G
Que de temps perdu en surface.



Chorus (0:59)

G                        Bm
Que de temps passé en surface,
     F#                    G
Que de temps à ne pas succomber
Em/G                      Bm
Au spleen et aux étoiles plombées.
F#                        G
Que de temps passé en surface.



Verse (1:15)

G                        Bm
L'éphémère était mon crédo
     F#                    G
Et hier, à la mauvaise place.
Em/G                      Bm
Je n'aimais pas trop mon cerveau,
F#7                        G
Mon corps envahissait l'espace.



Verse (1:29)

G                        Bm
Et puis j'ai vu bouger la surface
     F#                    G
Tout le temps venant à déborder.
Em/G                      Bm
Je pensais ne pas y penser,
F#                        G
Oui mais nos pensées nous dépassent



Verse (1:44)

G                        Bm
Et j'ai glissé sur la surface,
     F#                    G
Délesté de la légèreté.
Em/G                      Bm
J'ai compté les étoiles tombées
F#                        G
Et claqué le temps passé en surface.



Solo (1:59)

   G                  Bm              F#              G
e------------------|---------------|---------------|------------------|
b--8----8----8-----|--7---7---7----|--7---7---7----|--8----8----8-----|
g----11---11---11--|----9---9---9--|----9---9---9--|----11---11---11--|
d------------------|---------------|---------------|------------------|
a------------------|---------------|---------------|------------------|
e------------------|---------------|---------------|------------------|

   Em/G               Bm              F#              G
e------------------|---------------|---------------|------------------|
b--8----8----8-----|--7---7---7----|--7---7---7----|--8----8----8-----|
g----11---11---11--|----9---9---9--|----9---9---9--|----11---11---11--|
d------------------|---------------|---------------|------------------|
a------------------|---------------|---------------|------------------|
e------------------|---------------|---------------|------------------|



Chorus (2:13)

G                        Bm
Que de temps passé en surface.
     F#                    G
Que de temps à ne pas s'encombrer
Em/G                      Bm
Du temps et des étoiles tombées.
F#                        G
Que de temps passé en surface.



Outro (2:28)

D  GM7/D
D  GM7/D D
Добавлено: 23.06.2015
Другие материалы по этой песне:
  • Аккорды и текст

Страница создана 23.06.2015
http://primanota.ru/etienne-daho/en-surface-chords.htm
Привет, Гость.
Предлагаем пройти революционный курс по гитаре.
Подарок от PrimaNota.Ru, забирай!