PrimaNota.ru - самый крупный в мире бесплатный архив песенных текстов, аккордов, табулатур и нот


Eths - Bulimiarexia - текст песни, бас-таба, видео

Регистрация Запомнить меня
Войти через:  Facebook Google Twitter Vk Yandex Mail.ru

Eths - Bulimiarexia - текст песни, бас-таба, видео

Печатать
Просмотров: 181
Band      : Eths
Song      : Bulimiarexia
Album     : Tératologie
Year      : 2007
tabbed by : IvanHo

Intro 4X
G|---------------------------------------------------------|
D|---------------------------------------------------------|
A|---------------------------------------------------------|
E|---------------------------------------------------------|
B|-0-0-1-0-1-3----0-1-3-1---1-3-1----0-0-1-0-1-3----0-0-0--|


Fill 1 3X
G|---------|
D|---------|
A|---------|
E|---------|
B|-00--1-3-|


Verse 4X
G|-------------------------------|
D|-------------------------------|
A|-------------------------------|
E|-------------------------------|
B|-0~------3~-----5~------3~-----|

Intro 2X

Chorus 2X
G|-----------------------------------------------------------------|
D|-----------------------------------------------------------------|
A|-----------------------------------------------------------------|
E|-0-0-0-0-2-2-3-3-0-0-0-0-2-2-3-3-0-0-0-0-2-2-3-3-0-0-0-0---------|
B|---------------------------------------------------------4-4-4-4-|

Verse 8X

Intro 2X

Chorus 2X

Intro 2X

Fill 2 1X
G|-------|
D|-------|
A|-------|
E|-------|
B|-0-0-0-|

Bridge 2X
G|--------------------------|----------------------|-----------------------|
D|--------------------------|----------------------|-----------------------|
A|--------------------------|----------------------|-----------------------|
E|--------------------------|----------------------|-----------------------|
B|-0-0-5-/-0--0-0-0--0-0-0--|-0-0-----0-0-0--0-0-0-|-0-0-1-1--0-0-0--0-0-0-|
 
Fill 3 1X
G|-------------------------------------------------------------|
D|-------------------------------------------------------------|
A|-------------------------------------------------------------|
E|-------------------------------------------------------------|
B|-0-0-1-0-1-3----0-1-3-1---1-3-1----0-0-1-0-1-3----5-/-0----0-|

Piano Part (with Chorus effect)4X
G|------------|
D|------------|
A|------------|
E|------------|
B|-4----3--1--|

After piano part 5X
G|------------------------------------|
D|------------------------------------|
A|------------------------------------|
E|------------------------------------|
B|-4-4-4-4-4-4--444--3-3-3-3-1-1--111-|

Variation Intro 1X
G|---------------------------------------------------------|
D|---------------------------------------------------------|
A|---------------------------------------------------------|
E|---------------------------------------------------------|
B|-----------------------------------0-0-1-0-1-3----0-0-0--|

G|---------------------------------------------------------|
D|---------------------------------------------------------|
A|---------------------------------------------------------|
E|---------------------------------------------------------|
B|-0-0-1-0-1-3----0-1-3-1---1-3-1----0-0-1-0-1-3----0-0-0--|

G|----------------------------|
D|----------------------------|
A|----------------------------|
E|----------------------------|
B|-0-0-1-0-1-3----0-1-3-1-----|

Final Riff
G|-------------------------------------|-----------------------------------|
D|-------------------------------------|-----------------------------------|
A|-------------------------------------|-----------------------------------|
E|-------------------------------------|-----------------------------------|
B|-0-0--0-0--0-0-----0-0--0-0--0-0-----|-0-0--0-0--0-0-----0-0--0-0--0-0---|

G|-------------------------------------------------------------------------|
D|-------------------------------------------------------------------------|
A|-------------------------------------------------------------------------|
E|-------------------------------------------------------------------------|
B|-5-/-0--0-0-0-------5-/-0--0-0-0-----5-/-0--0-0-0----5-/-0---0-0-0----0--|

Have fun

website: www.eths.net or www.myspace.com/eths

Добавлено: 17.04.2012
Другие материалы по этой песне:

Страница создана 31.03.2012
http://primanota.ru/eths/bulimiarexia-chords.htm
Привет, Гость.
Предлагаем пройти революционный курс по гитаре.
Подарок от PrimaNota.Ru, забирай!