PrimaNota.ru - самый крупный в мире бесплатный архив песенных текстов, аккордов, табулатур и нот


Ethos - Run Away - таба, видео

Регистрация Запомнить меня
Войти через:  Facebook Google Twitter Vk Yandex Mail.ru

Ethos - Run Away - таба, видео

Печатать
Просмотров: 129
Уроки эстрадного вокала в Санкт-Петербурге
Ethos - Run Away:

Guitar1

Intro & Verse:
Play with flanger and tremolo 

E|8-8-8-8-7-0-8-8-8-7-5-7-|
H|------------------------|
G|------------------------|
D|------------------------|
A|------------------------|
E|------------------------|

Chorus:
Play with heavy distroition:

E|--------------------------------------------3|
H|---------------------------------------------|
G|---------------------------------------------|
D|2-2-2-2-2-2-2-1--------------2-2-2-2-2-2-2-2--|
A|2-2-2-2-2-2-2-1-1-1-1-1-1-1-2-2-2-2-2-2-2-2-2|
E|0-0-0-0-0-0-0-1-1-1-1-1-1-1-----------------3|

Bridge:
Play with heavy distroition:

E|12-14-12-10|
H|12-14-12-10|
G|-----------|
D|-----------|
A|-----------|
E|-----------|

Guitar 2:
Intro & Verse:
play clean

E|12-12-12-12-12-12-12-12-|
H|12-12-12-12-12-12-12-12-|
G|------------------------|
D|------------------------|
A|------------------------|
E|------------------------|

Chorus:
E|--------------------------------------------3|
H|---------------------------------------------|
G|--------------------x-x-x-x------------------|
D|2-2-2-2-2-2-2-------x-x-x-x-2-2-2-2-2-2-2-2--|
A|2-2-2-2-2-2-2-1-1-1-x-x-x-x-2-2-2-2-2-2-2-2-2|
E|--------------1-1-1-x-x-x-x-----------------3|

     
Добавлено: 30.07.2013
Другие материалы по этой песне:
  • Аккорды и текст

Страница создана 30.07.2013
http://primanota.ru/ethos/run-away-chords.htm
Привет, Гость.
Предлагаем пройти революционный курс по гитаре.
Подарок от PrimaNota.Ru, забирай!