PrimaNota.ru - самый крупный в мире бесплатный архив песенных текстов, аккордов, табулатур и нот


Ethan Johns - Hello Sunshine - таба, видео

Регистрация Запомнить меня
Войти через:  Facebook Google Twitter Vk Yandex Mail.ru

Ethan Johns - Hello Sunshine - таба, видео

Печатать
Просмотров: 45
--> Moderator: The tuning is Drop DG but I can't find in the list of tunings so I put 'standard' 
please consider and delete this note if the tab accepted. <--

Tabbed by: Diego Palmeira

Tuning: DGDGBE

--> (Capo on 3) <--

Intro:

E|----------------------------|
B|----------------------------|
G|-7---4---2---0--------------|
D|-0---0---0---0--------------|
G|-0---0---0---0--------------|
D|----------------------------| 

Verse:

Goodbye cruel world, hello sunshine
These towers of sorrow must crumble to ruin...
E|----------------------------|
B|----------------------------|
G|-7---4---2---0--------------|
D|-0---0---0---0--------------|
G|-0---0---0---0--------------|
D|----------------------------|

...to ruin 
E|----------------------------|
B|----0h1--1------------------|
G|-----0---0------------------|
D|----0h2--2------------------|
G|-----0---0------------------|
D|----------------------------|

From Jamestown to Arlington fields
These divisions just don't seem to heal
E|----------------------------|
B|---3---0h1--1---------------|
G|---2----0---0---------------|
D|---0---0h2--2---------------|
G|--------0---0---------------|
D|---0------------------------|

(The same to the rest of the verse) 

You can't hide when you're walking a lie
The truth hurts time after time after time...
E|----------------------------|
B|-------5--3--1--0-----------|
G|-------0--0--0--0-----------|
D|-------0--0--0--0-----------|
G|-0-4-5-5--4--2--0-----------|
D|----------------------------|

...Time after time
E|----------------------------|
B|---3---0h1--1---------------|
G|---2----0---0---------------|
D|---0---0h2--2---------------|
G|--------0---0---------------|
D|---0------------------------|

Hummmmmmmmmm
E|----------------------------|
B|----------------------------|
G|-7---4---2---0--------------|
D|-0---0---0---0--------------|
G|-0---0---0---0--------------|
D|----------------------------| 


Solo:
E|----------------------------|
B|----------------------------|
G|-7---4---2---0--------------|
D|-0---0---0---0--------------|
G|-0---0---0---0--------------|
D|----------------------------| 

E|----------------------------|
B|-8-0h8--3-0h3--1-0h1----1---|
G|-7-0h7--4-0h4--2-0h2----0---|
D|-0--0---0--0---0--0-----2---|
G|-0--0---0--0---0--0-----0---|
D|----------------------------| 

E|----------------------------|
B|---3-3--0h1--1--------------|
G|---2-0---0---0--------------|
D|---0-0--0h2--2--------------|
G|---------0---0--------------|
D|---0-0----------------------| <-- (2x)

E|----------------------------|
B|----------------------------|
G|-7---4---2---0--------------|
D|-0---0---0---0--------------|
G|-0---0---0---0--------------|
D|----------------------------| 

(Then Back to the final verse)

Finale:

Goodbye cruel world, hello sunshine
Goodbye cruel world, hello sunshine
Goodbye cruel world, hello sunshine
E|----------------------------|
B|----------------------------|
G|-7---4---2---0--------------|
D|-0---0---0---0--------------|
G|-0---0---0---0--------------|
D|----------------------------|

E|----------3-----------------|
B|--0--0--0-------------------|
G|--0--0--0-------------------|
D|--0--0--0-------------------|
G|--0--0--0-------------------|
D|----------------------------|

Lyrics:

Goodbye cruel world, hello sunshine
These towers of sorrow must crumble to ruin
From Jamestown to Arlington fields
These divisions just don't seem to heal

Goodbye cruel world, hello sunshine
This prison of fear can hold us no more
And the darkness like night on a wheel
Still turns and in time will reveal

You can't hide when you're walking a lie
The truth hurts time after time after time

Goodbye cruel world, hello sunshine
This labyrinth of guilt will hold is secrets no more
As the garden lays paths of its own
And it's fed by the dust of our bones

You can't hide when you're walking a lie
The truth heals time after time after time

Goodbye cruel world, hello sunshine
With every dawn comes a chance to be true
And the bells of tolerance peal
Shattering doctrine seals

Goodbye cruel world, hello sunshine
Goodbye cruel world, hello sunshine
Goodbye cruel world, hello sunshine
Добавлено: 25.06.2016
Другие материалы по этой песне:
  • Аккорды и текст

Страница создана 25.06.2016
http://primanota.ru/ethan-johns/hello-sunshine-chords.htm
Привет, Гость.
Предлагаем пройти революционный курс по гитаре.
Подарок от PrimaNota.Ru, забирай!